Upper Class Racket - Let It Roll Chords & Tabs

 

Let It Roll Chords & Tabs

Upper Class Racket Chords & Tabs

Version: 1 Type: Bass Tab 0 ratings
1 star 2 stars 3 stars 4 stars 5 stars
comments

Let It Roll Bass Tab

   
Song:  Let It Roll
Artist: Upper Class Racket
Tabbed by: Kim (kim_2222@hotmail.com)
										x5
G:---------------------------------------|---------------------------------------|
D:-0-0-0-0---0-0-0-0---0-0-0-0---3-3-3-3-|-0-0-0-0---0-0-0-0---0-0-0-0-----------|
A:---------------------------------------|-------------------------------2-2-3-3-|
E:---------------------------------------|---------------------------------------|
		     x4
G:--------------------|
D:-2-2--3-3--5-5--7-7-|
A:--------------------|
E:--------------------|

       x2
G:------|
D-------|
A:------|
E:-10\5-|
										x3
G:---------------------------------------|---------------------------------------|
D:-0-0-0-0---0-0-0-0---0-0-0-0---3-3-3-3-|-0-0-0-0---0-0-0-0---0-0-0-0-----------|
A:---------------------------------------|-------------------------------2-2-3-3-|
E:---------------------------------------|---------------------------------------|
[ Tab from: http://www.guitartabs.cc/tabs/u/upper_class_racket/let_it_roll_btab.html ]
G:---------------------------------------|
D:-0-0-0-0---0-0-0-0---0-0-0-0-----------|
A:-------------------------------2-2-3-3-|
E:---------------------------------------|
		     x4
G:--------------------|
D:-2-2--3-3--5-5--7-7-|
A:--------------------|
E:--------------------|
       x5
G:------|
D-------|
A:------|
E:-10\5-|
		     x4
G:--------------------|
D:-2-2--3-3--5-5--7-7-|
A:--------------------|
E:--------------------|
										x2
G:---------------------------------------|---------------------------------------|
D:-0-0-0-0---0-0-0-0---0-0-0-0---3-3-3-3-|-0-0-0-0---0-0-0-0---0-0-0-0-----------|
A:---------------------------------------|-------------------------------2-2-3-3-|
E:---------------------------------------|---------------------------------------|
		     x4
G:--------------------|
D:-2-2--3-3--5-5--7-7-|
A:--------------------|
E:--------------------|
										x2
G:---------------------------------------|---------------------------------------|
D:-0-0-0-0---0-0-0-0---0-0-0-0---3-3-3-3-|-0-0-0-0---0-0-0-0---0-0-0-0-----------|
A:---------------------------------------|-------------------------------2-2-3-3-|
E:---------------------------------------|---------------------------------------|
		     x4
G:--------------------|
D:-2-2--3-3--5-5--7-7-|
A:--------------------|
E:--------------------|

G:-----|
D:-0-0-|
A:-----|
E:-----|

Comments