Upo - Godless Chords & Tabs

 

Godless Chords & Tabs

Upo Chords & Tabs

Version: 5 Type: Tab 0 ratings
1 star 2 stars 3 stars 4 stars 5 stars
comments

Godless Tab

   
Name: Matt Jansson

Tabs: U.P.O. - Godless
Tabbed by : Matt Jansson
Drop D tuning (D,A,D,G,B,E) 

This is a great song!
I think itīs correct, it sounds great though!

Intro:

--0-0---0-0---3-3-3----------------------
--3/6---6-6---6-6-6----6--6--------------
--2/5---5-5---5-5-5----5--5--------------
--0-0---0-9---3-3-3----3--3----3/5-5-5-7-  
--------------3-3-3----3--3----3/5-5-5-7-
--------------3-3-3------------3/5-5-5-7-

                               Repeat this trough out the verse.
--0-0---0-0---3-3-3----------------------
--3/6---6-6---6-6-6----6--6--------------
--2/5---5-5---5-5-5----5--5--------------
--0-0---0-9---3-3-3----3--3----3/5-5-5-3-  
--------------3-3-3----3--3----3/5-5-5-3-
--------------3-3-3------------3/5-5-5-3-

Chorus:
[ Tab from: http://www.guitartabs.cc/tabs/u/upo/godless_tab_ver_5.html ]
-----------------------
-----------------------
----------5------------
--0--3-3--5--3/5-5-5-7-  
--0--3-3--3--3/5-5-5-7-
--0--3-3-----3/5-5-5-7-

-----------------------
-----------------------
----------5------------
--0--3-3--5--3/5-5-5-3-  
--0--3-3--3--3/5-5-5-3-
--0--3-3-----3/5-5-5-3-

Second guitar after the chorus, also the acoustic outro.
--------------------------
------5-6-----5-6-----5-6-
----5-------5-------5-----
--0-------3-------5-------
--------------------------
--------------------------

There is a little variation after the second chorus:
--------------------------
------5-6-----8-6-----5-6-
----5-------5-------5-----
--0-------3-------5-------
--------------------------
--------------------------

Thatīs it! As always....if you have any questions or comments email me 
at :
(semisonic30@hotmail.com)

Comments