Upo - Godless Chords & Tabs

 

Godless Chords & Tabs

Upo Chords & Tabs

Version: 3 Type: Tab 0 ratings
1 star 2 stars 3 stars 4 stars 5 stars
comments

Godless Tab

   
Artist- U.P.O
Song- Godless
Im pretty sure these chords are correct if not please email me if u find something better 
xxtearsofpainxx@yahoo.com
*~cassie~*
  VERSES                                                                         
      D9            F             C          F   /   G                A           
e----0----0------1----1-------0------0-------1-- /---3----------------5--------
B----1----1------1----1-------1------1-------1---/---3----------------5--------
G----2----2------2----2-------0------0-------2---/---4----------------6--------
D----0----0------3----3-------2------2-------3---/---5----------------7--------
A----------------3----3-------3------3-------3---/---5----------------7--------
E----------------1----1-------3------3-------1---/---3----------------5--------

Repeat 6 times^^^^^^^

Chorus
[ Tab from: http://www.guitartabs.cc/tabs/u/upo/godless_tab_ver_3.html ]
         D5         F5          C5     F5  /  G5      G5  /  F5
e-----------------------------------------------------------------------
B-----------------------------------------------------------------------
G-----------------------------------------------------------------------
D-------7---7-----10--10------------------------------------------------
A-------5---5------8---8-----10--10----3--/---5--------5--/--3----------
E-----------------------------8---8----1--/---3--------3--/--1----------

on the second time thorugh the chorus  instead of goiing to  G5/F5 go from G5 to A5

e----------0---------------0--------------------------------------------
B----------------6------------------------------------------------------
G-----5----------------5--------6---------------------------------------
D-----------------------------------------------------------------------
A-----------------------------------------------------------------------
E-----------------------------------------------------------------------
Hope this works out for you as it did me :)
Comments