Uphill Gardeners - Knob Cheese Chords & Tabs

 

Knob Cheese Chords & Tabs

Uphill Gardeners Chords & Tabs

Version: 1 Type: Tab 0 ratings
1 star 2 stars 3 stars 4 stars 5 stars
comments

Knob Cheese Tab

Band: Uphill Gardeners
Song: Knob Cheese
Album: tba


Intro & Verse

e|----------5---------3----------|
B|--1--3------------0---3--1-3-3-|
G|--5--7--7---7p0--------------7-|
D|-------------------------------|
A|-------------------------------|
E|-------------------------------|
 |                               |
e|-------------------------------|
B|-------------------------------|
G|-------------------------------|
D|-------------------------------|
A|-3------5---------2------3-----|
E|-------------------------------|


Pre-chorus
[ Tab from: http://www.guitartabs.cc/tabs/u/uphill_gardeners/knob_cheese_tab.html ]
e|-12-12--14-14--10-10--12-12-|
B|----------------------------|
G|----------------------------|
D|----------------------------|
A|----------------------------|
E|----------------------------|

Chorus

e|---------------------------------|
B|-----------3-3-3--3--------------|
G|-5-5-5--5--2-2-2--2--4-4-4--5--5-|
D|-5-5-5--5--0-0-0--0--4-4-4--5--5-|
A|-3-3-3--3------------2-2-2--3--3-|
E|---------------------------------|

- Verse
- Pre-chorus
- Chorus

Interlude

e|--------------------------------------------------------|
B|-5-x-5--5-5-x-------------------------------------------|
G|-4-x-4--4-4-x--5-x-5--5-5-x----------------7-x-7--7-7-7-|
D|-2-x-2--2-2-x--5-x-5--5-5-x--5-x-5--5-5-x--7-x-7--7-7-7-|
A|-2-x-2--2-2-x--3-x-3--3-3-x--5-x-5--5-5-x--5-x-5--5-5-5-|
E|-----------------------------3-x-3--3-3-x---------------|

- Verse
- Pre-chorus
- Chorus
Comments