Up Syndrome - Jackson Five Were Wrong Chords & Tabs

 

Jackson Five Were Wrong Chords & Tabs

Up Syndrome Chords & Tabs

Version: 2 Type: Tab 0 ratings
1 star 2 stars 3 stars 4 stars 5 stars
comments

Jackson Five Were Wrong Tab

up syndrome-the jackson five were wrong
by dan barnes
 this is a tight ass song and i am sure that i got it 100% correct.
 except from the solo!!!!

 standard tuning:E

 Intro:
---------------------------------------------------------------------|
---------------------------------------------------------------------|
---0-0-4-0-5h-4p-0--------------------------4---5h-4p-0--------------|
---------------------0-0-4-0-5h-4p-0----2-2---2----------------------|
---------------------------------------------------------------------|
---------------------------------------------------------------------|

---------------------------------------------------------------------|
---------------------------------------------------------------------|
---------------------------------------------------------------------|
-------5---7h-5p-----------X2----------------------------------------|
---3-3---3-------3-3-------------------------------------------------|
---------------------------------------------------------------------|

 Verse:
---------------------------------------------------------------------|
---------------------------------------------------------------------|
---------------------------------------------------------------------|
---33333---77777----99999--------------------------Xi dont know -----|
---55555---55555----77777---8--8--8--8--8----------------------------|
---------------------------10-10-10-10-10----------------------------|

 this is also the chorous

 the back to the intro the
[ Tab from: http://www.guitartabs.cc/tabs/u/up_syndrome/jackson_five_were_wrong_tab_ver_2.html ]
 interlude:
---------------------------------------------------------------------|
------3------3------3------3------0----0---------1-------1p-0--------|
--0-0----0-0---------------------------------------------------------|
----------------0-0----0-0---2-2---2-2----------------------------X2-|
--------------------------------------------3-3-----3-3--------------|
---------------------------------------------------------------------|

 solo:
-------7---8h-7p----10h-7p---8h-7p-----------------------------------|
---8-8---8--------8--------8-----------------------------------------|
---------------------------------------------------------------------|
-----------------------------------X3--------------------------------|
---------------------------------------------------------------------|
---------------------------------------------------------------------|

---------------------------------------------------------------------|
---------------------------------------------------------------------|
-----12-10-----------------------------------------------------------|
-----------12-10-12-10--9-9-10-9-------------------------------------|
---------------------------------10-9-10-9---------------------------|
-------------------------------------------10-10---------------------|

---------------------------------------------------------------------|
--10--8-8-8-8-8--8-8--10-8-8-8-8-8-8-8-------------------------------|
---x--x-x-x----------------------------------------------------------|
---7--5-5-5----------------------------X2----------------------------|
---------------------------------------------------------------------|
---------------------------------------------------------------------|

---------------------------------------------------------------------|
--13--13-13-13--12-12-12--10-10-10-----------------------------------|
---x-------------x---------x-----------------------------------------|
--10-------------9---------7-----------------------------------------|
---------------------------------------------------------------------|
---------------------------------------------------------------------|

 then all u have to do is the intro again and thats it

 i thnk up syndrome is a really tight ass band they are so good!!!!!!
Comments