Unwritten Law - Up All Night Chords & Tabs

 

Up All Night Chords & Tabs

Unwritten Law Chords & Tabs

Version: 5 Type: Tab 0 ratings
1 star 2 stars 3 stars 4 stars 5 stars
comments

Up All Night Tab

Whole Song  Finally ..... Lizzie McGuire is SOoO Hott! 
Have Fun  ..... ~ T-Money


Intro:
-------------------------]--------------------------------
-------------------------]--------------------------------
-6----6/9----------------]----------------------9--8--5--- 
-6-x2-6/9-----4-----4/7--]x3----6-7-6-6-7-6-----9--8--5--- Guitar 2
-4----4/7-----4-x4--4/7--]------6-7-6-6-7-6-----7--6--3---
--------------2-----2/5--]------4-5-4-4-5-4-----7--6--3---

Verse1:
-----0-0-0-0-----0-0-----0------0-  <-  Guitar 1
-----5-5-5-5-----5-5-----5------9-
----------------------------------
-6-6------------------------------ x3
-4-4---------7-7-----9-9----6-6---
-------------5-5-----7-7----4-4---  <-  Guitar 2

-----0-0-0-0--------------------
-----5-5-5-5--------------------   <- Guitar 1
--------------------------------
-6-6------------4-4--4/6--7-----
-4-4------------4-4--4/6--7-----   <- Guitar 2
----------------2-2--2/4--5-----

Chorus:
----------------------          ---------------------------
----------------------          ---------------------------
-9----6---------------          --9----9----9----9----8----
-9-x8-6-x8-7----9----- Guitar 1 --9-x8-9-x8-9-x8-9-x4-8-x4-  <- Guitar 2
-7----4----7-x8-9-x8--          --7----7----7----7----6----
-----------5----7-----	        ---------------------------

-----0-0-0-0-----0-0-----0------0-------0-0-0-0----------------  
-----5-5-5-5-----5-5-----5------9-------5-5-5-5---------------- <- Guitar 1
---------------------------------------------------------------
-6-6--------------------------------6-6----------4-4--4/6--7---
-4-4---------7-7-----9-9----6-6-----4-4----------4-4--4/6--7--- <- Guitar 2
-------------5-5-----7-7----4-4------------------2-2--2/4--5---

Verse2:
---------------------------------- 
----------------------------------
----------------------------------
-6-6------------------------------ x2
-4-4---------7-7-----9-9----6-6---
-------------5-5-----7-7----4-4---  <-  Guitar 2

-----0-0-0-0-----0-0-----0------0-------0-0-0-0----------------------------
-----5-5-5-5-----5-5-----5------9-------5-5-5-5----------------------------  <- Guitar 1
---------------------------------------------------------------------------
-6-6--------------------------------6-6----------4-4--4/6--{7}-------------
-4-4---------7-7-----9-9----6-6-----4-4----------4-4--4/6--{7}-til-chorus--  <- Guitar 2
-------------5-5-----7-7----4-4------------------2-2--2/4--{5}-------------
[ Tab from: http://www.guitartabs.cc/tabs/u/unwritten_law/up_all_night_tab_ver_5.html ]
Chorus:
----------------------          ---------------------------               ]
----------------------          ---------------------------               ]
-9----6---------------          --9----9----9----9----8----               ]
-9-x8-6-x8-7----9----- Guitar 1 --9-x8-9-x8-9-x8-9-x4-8-x4-  <- Guitar 2  ] x2
-7----4----7-x8-9-x8--          --7----7----7----7----6----               ]
-----------5----7-----	        ---------------------------               ]
									
								     Bridge:
-------------------------]--------------------------------	    ----------
-------------------------]--------------------------------	    ------4---
-6----6/9----------------]----------------------9--8--5--- 	    ----5---5-   
-6-x2-6/9-----4-----4/7--]x3----6-7-6-6-7-6-----9--8--5--- Guitar 2 --5------- x4 <- Guitar 1 
-4----4/7-----4-x4--4/7--]------6-7-6-6-7-6-----7--6--3---	    ----------      Clean Guitar
--------------2-----2/5--]------4-5-4-4-5-4-----7--6--3---	    ----------
     				     ^ start slowin down ^ 

---------------------------------------------------------------|-----------|
------5-------9-------5-----9-7----------5-------9-------5-----|Distorted--|
----6---6---9---9---6---6-------9------6---6---9---9---6---6---|-----9-9---|
--6-------9-------7-------9----------6-------9-------7---------|-9-9-9-9---| <- Guitar 2 Solo
---------------------------------------------------------------|-9-9-7-7---|    Clean Guitar
---------------------------------------------------------------|-7-7-------|

Verse3:
-----0-0-0-0-----0-0-----0------0-  <-  Guitar 1
-----5-5-5-5-----5-5-----5------9-
----------------------------------
-6-6------------------------------ x3
-4-4---------7-7-----9-9----6-6---
-------------5-5-----7-7----4-4---  <-  Guitar 2

-----0-0-0-0---------------------------
-----5-5-5-5---------------------------   <- Guitar 1
---------------------------------------
-6-6---------PS---4-4--4/6--7----6-----
-4-4---------PS---4-4--4/6--7-x8-6-x8--   <- Guitar 2
-------------PS---2-2--2/4--5----4-----
             ^ 
	 Pick Slide

Chorus:
----------------------          ---------------------------
----------------------          ---------------------------
-9----6---------------          --9----9----9----9----8----
-9-x8-6-x8-7----9----- Guitar 1 --9-x8-9-x8-9-x8-9-x4-8-x4-  <- Guitar 2
-7----4----7-x8-9-x8--          --7----7----7----7----6----
-----------5----7-----	        ---------------------------

Outro:
-------------------------]--------------------------------------
-------------------------]--------------------------------------
-6----6/9----------------]----------------------9--8--5--{6}---- 
-6-x2-6/9-----4-----4/7--]x3----6-7-6-6-7-6-----9--8--5--{6}-x5- Guitar 2
-4----4/7-----4-x4--4/7--]------6-7-6-6-7-6-----7--6--3--{4}----
--------------2-----2/5--]------4-5-4-4-5-4-----7--6--3---------
Comments