Unwritten Law - Up All Night Chords & Tabs

 

Up All Night Chords & Tabs

Unwritten Law Chords & Tabs

Version: 4 Type: Tab 0 ratings
1 star 2 stars 3 stars 4 stars 5 stars
comments

Up All Night Tab

Intro - Guitars 1 & 2

e---(1st, 2nd, & 3rd times)--|--(4th time)-------------------------------------
B----------------------------|-------------------------------------------------
G--6-6--6-9------------------|--------------9-8-5------------------------------
D--6-6--6-9--4-4-4-4-4--7-7--|--6-7-6-6-7-6-9-8-5------------------------------
A--4-4--4-7--4-4-4-4-4--7-7--|--6-7-6-6-7-6-7-6-3------------------------------
E--4-4--4-7--2-2-2-2-2--5-5--|--4-5-4-4-5-4-7-6-3------------------------------

Verse - Guitar 1 w/ reggae beats & palm muting
e------0-0-0-0-----0-0-----0-----4------0-0-0-0-----0-0-----0------|-----------
B------5-5-5-0-----0-0-----0-----4------5-5-5-0-----0-0-----0------|-----------
G------------------------------------------------------------------|-----------
D------------------------------------------------------------------|-----------
A------------------------------------------------------------------|-----------
E------------------------------------------------------------------|-----------

verse-Guitar 2 palm mute only
e------------------------------------------------------------------|-----------	
B------------------------------------------------------------------|-----------
G------------------------------------------------------------------|-----------
D--6-6------------------------------6-6----------------------------|--4-4--6-7-
A--4-4---------7-7-----9-9---6-6----4-4---------7-7-----9-9---9-9--|--4-4--6-7-
E--------------5-5-----7-7---4-4----------------5-5-----7-7---7-7--|--2-2--4-7-

Chorus - Guitar 1 strumming pattern not shown
e------------------------------------------------------------------------------
B------------------------------------------------------------------------------
G--4----6----2----4------------------------------------------------------------
D--2----6----2----4------------------------------------------------------------
A--2----4----0----2------------------------------------------------------------
E--0---------------------------------------------------------------------------

Chorus - Guitar 2 not sure of this
e|------------------------------------------|
B|------------------------------------------|
G|--99999999--66666666--22222222--44444444--|
D|------------------------------------------| x 2 
A|--77777777--44444444--00000000--22222222--|
E|------------------------------------------|

Verse 2

Guitar 2
e|------------------------------------------------|
B|------------------------------------------------|
G|--6-6--------------------6-6--------------------|
D|--6-6----7-7---9-9--6-6--6-6----7-7---9-9--9-9--|
A|--4-4----7-7---9-9--6-6--4-4----7-7---9-9--9-9--|
E|---------5-5---7-7--4-4---------5-5---7-7--7-7--|
 [----------------------PM------------------------]
[ Tab from: http://www.guitartabs.cc/tabs/u/unwritten_law/up_all_night_tab_ver_4.html ]
e|---------------------------------------------|
B|---------------------------------------------|
G|--6-6--------------------6-6-----------------|
D|--6-6----7-7---9-9--6-6--6-6----4-4--4-6--7--|
A|--4-4----7-7---9-9--6-6--4-4----4-4--4-6--7--|
E|---------5-5---7-7--4-4---------2-2--2-4--5--|
 [------------PM--------------]

than
Guitar 1
Play 8x
e|----------------|
B|----------------|
G|--9--9--9--9-8--|
D|----------------| x 2 (Obviously you play each chord a number of times)
A|--7--7--7--7-6--|
E|----------------|

Play 8x
e|--------------|
B|--------------|
G|--9--6--2--4--|
D|--------------| x 2 (Obviously you play each chord a number of times)
A|--7--4--0--2--|
E|--------------|

Bridge

Clean Guitar
e|----------|
B|------4---|
G|----5---5-|
D|--5-------| x 4
A|----------|
E|----------|

e|-----------------------------------|
B|------5-------9-------5-----9-7----|
G|----6---6---9---9---6---6-------9--|
D|--6-------9-------7-------9--------|
A|-----------------------------------|
E|-----------------------------------|

e|---------------------------|-----------|
B|------5-------9-------5----|-----------|
G|----6---6---9---9---6---6--|-----------|
D|--6-------9-------7--------|--9-9-6-6--|
A|---------------------------|--9-9-6-6--|
E|---------------------------|--7-7-4-4--|

			     [-Distorted-]

Verse - Guitar 1 w/ reggae beats & palm muting
e------0-0-0-0-----0-0-----0-----4------0-0-0-0-----0-0-----0------|-----------
B------5-5-5-0-----0-0-----0-----4------5-5-5-0-----0-0-----0------|-----------
G------------------------------------------------------------------|-----------
D------------------------------------------------------------------|-----------
A------------------------------------------------------------------|-----------
E------------------------------------------------------------------|-----------

verse-Guitar 2 palm mute only
e------------------------------------------------------------------|-----------	
B------------------------------------------------------------------|-----------
G------------------------------------------------------------------|-----------
D--6-6------------------------------6-6----------------------------|--4-4--6-7-
A--4-4---------7-7-----9-9---6-6----4-4---------7-7-----9-9---9-9--|--4-4--6-7-
E--------------5-5-----7-7---4-4----------------5-5-----7-7---7-7--|--2-2--4-7-

Chorus-play twice - Guitar 1 strumming pattern not shown
e------------------------------------------------------------------------------
B------------------------------------------------------------------------------
G--4----6----2----4------------------------------------------------------------
D--2----6----2----4------------------------------------------------------------
A--2----4----0----2------------------------------------------------------------
E--0---------------------------------------------------------------------------

Chorus - Guitar 2 not sure of this
e|------------------------------------------|
B|------------------------------------------|
G|--99999999--66666666--22222222--44444444--|
D|------------------------------------------| x 2 
A|--77777777--44444444--00000000--22222222--|
E|------------------------------------------|

thats it.this was my first tab pretty sure its right though
Comments