Unwritten Law - Up All Night Chords & Tabs

 

Up All Night Chords & Tabs

Unwritten Law Chords & Tabs

Version: 2 Type: Bass Tab 0 ratings
1 star 2 stars 3 stars 4 stars 5 stars
comments

Up All Night Bass Tab

Unwritten Law - Up All Nite
Tabbed By: megz
EMail: blinkz19@hotmail.com

(the other one isnt complete, and kinda messed up. 
im pretty sure this is just about everything)


*Intro*
G--------------
D------2-------
A--444-------0-    x 3
E--------222---

(the 4th time play...)
G--------------
D--------------
A--------7-6-3-
E--45454-------


*Verse #1*
G-------------------------------------------------
D-------------------------------------------------
A--44----------44----------44----------44---------
E-----55-77-44----55-77-77----55-77-44----222-4-5-


*Chorus*
*=play 8 times
G--*----------
D--2--*--*--*-
A-----4--0--2-    x2
E-------------

(and then play this thing between chorus and 2nd verse)
G-------------------------
D-------------------------
A--44----------44---------
E-----55-77-44----222-4-5-


*Verse 2*(its a little different)
G-----------------------------------------
D-----------------------------------------
A--44----------44---4-676-4------------44-
E-----55-77-44----4---------4-55-77-44----

G----------------------------------
D----------------------------------
A-----------44---4-676-4-----------
E--55-77-44----4---------4-222-4-5-

*Chorus*

*Intro* (play that part again, but hold last note)

*Bridge*
G------------------------------
D------------------------------
A--4---4-676-4---0---0-2---2-4-
E----4---------4---0-----4-----

G------------------------------
D------------------------------
A--4---4-676-4---0---0-2---2/4-
E----4---------4---0-----4-----

*Verse #1* (at the end add...
            E--55555555-4444--)

*Chorus*
and then..
G-----*-------
D--*--0--*--*-
A--4-----0--2-
E-------------

G--*----------
D--2--*--*--*-
A-----4--0--2-    
E-------------
[ Tab from: http://www.guitartabs.cc/tabs/u/unwritten_law/up_all_night_btab_ver_2.html ]
*Outro* (which is the same exact thing as the intro, but at the end
add...
A--44444--that should be it...its real easy. have fun. got any ?'s or whatever...email me.
-megz- blinkz19@hotmail.com
===========UP ALL NIGHT - Unwritten Law

By:Rhys Sheehan(smashing_punk_king_@hotmail.com)
   Intro  x3
G|---------------------------------------------------------------------------|
D|---------------------------------------------------------------------------|
A|--4-4-4--7-----------------------------------------------------------------|
E|------------2-2-2-2-2--5---------------------------------------------------|

   4th time
G|---------------------------------------------------------------------------|
D|---------------------------------------------------------------------------|
A|---------------------------------------------------------------------------|
E|---4-5-4-5-4-5-4--7--6-3---------------------------------------------------|

   verse-palm-mute                              end palm-mute
G|------------------------------------------:--------------------------------|
D|------------------------------------------:--------------------------------|
A|--4-4-----------------4-4-----------------:--------------------------------|
E|-------5-5--7-7--4-4-------5-5--7-7--7-7--:--2-2-2--4--5-------------------|

   Chorus- *=play 12 times
G|----*----------------------------------------------------------------------|
D|----2---*---*---*----------------------------------------------------------|
A|--------4---0---2----------------------------------------------------------|
E|---------------------------------------------------------------------------|

   Outro
G|---------------------------------------------------------------------------|
D|---------------------------------------------------------------------------|
A|-5-5-5-5-5-5----7-6-3---4-4-4-4-4------------------------------------------|
E|---------------------------------------------------------------------------|
Comments