Unwritten Law - Up All Night Chords & Tabs

 

Up All Night Chords & Tabs

Unwritten Law Chords & Tabs

Version: 1 Type: Bass Tab 0 ratings
1 star 2 stars 3 stars 4 stars 5 stars
comments

Up All Night Bass Tab

Song: Up All Night
Artist: Unwritten Law
Tabbed by: Lampe

Intro and Break. for intro play 3 times
		     
		      On 3rd one play this at the end
G|---------------| G|------------|
D|------2--------| D|------------|
A|-4-4-4-------0-| A|-------7-6--|
E|--------2-2-2--| E|-45454----7-|

For verses...
[ Tab from: http://www.guitartabs.cc/tabs/u/unwritten_law/up_all_night_btab.html ]
G|-----------------|	G|-----------------|
D|-----------------|	D|-----------------|
A|-44----------22--| x3 A|-44--------------|
E|---------55----44|	E|---------2-2-245-|

Chorus

G|-------------------------------------------------------------------|
D|-------------------------------------------------------------------|
A|-7-777-777-777-77------------------------------------------------6-|
E|-----------------7-777-777-777-77-5-555-555-555-55-7-777-777-777---|
Comments