Unwritten Law - Superman Chords & Tabs

 

Superman Chords & Tabs

Unwritten Law Chords & Tabs

Version: 1 Type: Tab 0 ratings
1 star 2 stars 3 stars 4 stars 5 stars
comments

Superman Tab

   
----------------------------------------------------------------------------
                           Superman-unwritten law
----------------------------------------------------------------------------

tabbed by- someone
email-N/A


tuning- e A d g b e


this is my first tab, i hope its right


intro pt 1:x2
E|------------------------------------------------|
B|------------------------------------------------|
G|-------7---------7----------------5----------5--|
D|------9---------9----------------7----------7---|
A|-----7---------7----------------5----------5----|
E|------------------------------------------------|

pt 2:x2
E|---------------------------------|--------------|
B|---------9------------7----------|--------------|
G|-------9--9---------7--7---------|-------9------|
D|------9-9----------7-7-----------|-------9------|
A|-----7------------5--------------|-------7------|
E|---------------------------------|--------------|

verse:x listen to the song
E|------------------------------------------------:|--------------|
B|-------9-9-999---9-9-999----7-7-777---7-7-777---:|---5-x10-4x10-|
D|-------9-9-999---9-9-999----7-7-777---7-7-777---:|---5-----4----|
A|-------7-7-777---7-7-777----5-5-555---7-7-777---:|---3-----2----|
E|------------------------------------------------:|--------------|

After that:
intro pt 1
verse
[ Tab from: http://www.guitartabs.cc/tabs/u/unwritten_law/superman_tab.html ]
Chorus/refrain:x2
E|-----------------------------------------------------------------:|
B|-----------------------------------------------------------------:|
G|---9-9-9999------9-9-9999------9-9-999--5-5-5-55--44-99-44-99-4--:|
D|---9-9-9999--77--9-9-9999--99--9-9-999--5-5-5-55--44-99-44-99-4--:|
A|---7-7-7777--77--7-7-7777--99--7-7-777--3-3-3-33--22-77-22-77-2--:|
E|-------------55------------77------------------------------------:|

bridge:x listen to song
E|---12~--10~--17~--13~-----------------------------------------:|----------
B|--------------------------------------------------------------:|----------
G|----------------------------9-9-999--9-9-999--7-7-777--7-7-777:|--5x104x10
D|----------------------------9-9-999--9-9-999--7-7-777--7-7-777:|--5---4---
A|----------------------------7-7-777--7-7-999--5-5-555--5-5-555:|--3---2---
E|--------------------------------------------------------------:|----------


after that:
chorus/refrain

Solo:x2
E|----------------------------------------------------------------------:|
B|----------------------------------------------------------------------:|
G|---9-9-9999-6-6-666-9-9-9999-8-8-888-9-9-999-5-5-555-44-99-44-99-4----:|
D|----------------------------------------------------------------------:|
A|----------------------------------------------------------------------:|
E|----------------------------------------------------------------------:|

outro:
E|-------------------------------------|
B|-------------------------------------|
G|-9999999-9-9-9-9-9-9--9--9--9--9-----|
D|-------------------------------------|
A|-------------------------------------|
E|-------------------------------------|

order:
intro pt1: x2
intro pt2:x2
verse
intro pt1:x2
verse
refrain
bridge
refrain
solo 
outro 

| /  slide up
| \  slide down
| h  hammer-on
| p  pull-off
| ~  vibrato
| +  harmonic
| x  Mute note


                      FIN
Comments