Unwritten Law - She Says Chords & Tabs

 

She Says Chords & Tabs

Unwritten Law Chords & Tabs

Version: 1 Type: Tab 0 ratings
1 star 2 stars 3 stars 4 stars 5 stars
comments

She Says Tab

----------------------------------------------------------------------------
			     SHE SAYS - Unwritten Law
----------------------------------------------------------------------------

Tabbed by: Tahoes
Email: tahoes@hotmail.com

This is my first tab but I'm pretty sure about it. Anyway if you have any better one, or 
another UL tab please let me know.

Tuning: You should tune your guitar a half step down but it sounds well if you don't.

Figure out the strumming by yourself...

   Intro/Verse (play this 4 times)

eb|-3-----3-----5-----3-----|
Bb|-3-----3-----5-----3-----|
Gb|-0-----0-----0-----0-----|
Db|-2-----2-----0-----2-----|
Ab|-2-----3-----4-----3-----|
Eb|-0-----------5-----------|

In the middle of the verse the strumming changes a bit, and a distorsed guitar appears.

   Verse
(Acoustic guitar)

eb|-3-----3-----5-----3-3-3-----3-----3-----5-----3----------------|
Bb|-3-----3-----5-----3-3-3-----3-----3-----5-----3----------------|
Gb|-0-----0-----0-----0-0-0-----0-----0-----0-----0----------------|
Db|-2-----2-----0-----2-0-2-----2-----2-----0-----2----------------|
Ab|-2-----3-----4-----3-2-2-----2-----3-----4-----3----------------|
Eb|-0-----------5-------3-0-----------------5----------------------|

(Distorsed guitar)

eb|----------------------|
Bb|----------------------|
Gb|----------------------|
Db|-2-----------2--------|
Ab|-2-----------2--------|
Eb|-0-----------0--------|

A background guitar plays this when the distorsed appears (It is played between each 
strum).

eb|--10--10--10--10------|
Bb|----8---8---8---8-----|
Gb|----------------------|
Db|----------------------|
Ab|----------------------|
Eb|----------------------|
[ Tab from: http://www.guitartabs.cc/tabs/u/unwritten_law/she_says_tab.html ]
   chorus (on the second chorus the last 577 are repeated twice)

eb|----------------------------------------------------------------|
Bb|----------------------------------------------------------------|
Gb|--------5-5-5---------5555---------------5-5-5------------------|
Db|-2-2-2--5-5-5--7-7-7--5555--5554--2-2-2--5-5-5-7-7-7-7-7-7-7-7--|
Ab|-2-2-2--3-3-3--7-7-7--3333--5554--2-2-2--3-3-3-7-7-7-7-7-7-7-7--|
Eb|-0-0-0---------5-5-5--------3332--0-0-0--------5-5-5-5-5-5-5-5--|

   Clean guitar at the beginning of the second verse
                                       x2            x6
eb|------------3-------10~-----------|------|-------|
Bb|-8\7--------1---------------------|------|-------|
Gb|------------0-----------------5\4-|-+5---|--4----|
Db|------------2---------------------|------|----5--|
Ab|------------3---------------------|------|-------|
Eb|----------------------------------|------|-------|

   Bridge (figure out the strumming)

eb|----------------------|
Bb|----------------------|
Gb|--4----5----6-----5---|
Db|--x----x----x-----x---|
Ab|--2----3----4-----3---|
Eb|----------------------|

   End (play this as long as you need)

eb|--10--10--10--10------|
Bb|----8---8---8---8-----|
Gb|----------------------|
Db|----------------------|
Ab|----------------------|
Eb|----------------------|

 The songs goes like this:

   Intro/Verse (Acoustic)
   Verse (acoustic/distorsed/clean)
   Chorus (distorsed)
   Intro/verse (acoustic/clean)
   Verse (acoustic/distorsed/clean)
   Chorus (x2) (distorsed)
   Bridge (distorsed)
   Intro/verse (acoustic)
   Verse (acoustic/clean at the end)
   Chorus (x2) (distorsed)
   End (clean)

| /  slide up
| \  slide down
| ~  vibrato
| +  harmonic
| x  Mute note
Comments