Unwritten Law - Shallow Chords & Tabs

 

Shallow Chords & Tabs

Unwritten Law Chords & Tabs

Version: 4 Type: Tab 0 ratings
1 star 2 stars 3 stars 4 stars 5 stars
comments

Shallow Tab

-------------------------------------------------------------------------------
			     SONG NAME - Band Name
-------------------------------------------------------------------------------
Tabbed by:over_it
Email:rise_agaisnt3@hotmail.com

Tuning:dadgbe
*the strumming pattern is way easy just listen to the song and you'll get it like right off
Intro
1st Guitar
e|--------------------------------------------------------------------------|
B|--------------------------------------------------------------------------|
G|------4--6--(x2)----------------------------------------------------------|
D|4--1--4--6----------------------------------------------------------------|
A|4--1--2--4----------------------------------------------------------------|
D|4--1----------------------------------------------------------------------|

2nd Guitar
e|---------------9-9-7-7---------------9-9-7-7-------------------9-9-7-7----|
B|7-7--7-7-7-7-7-------7-7--7-7-7--7-7-----------7-7--7-7-7--7-7------------|
G|--------------------------------------------------------------------------|
D|--------------------------------------------------------------------------|
A|--------------------------------------------------------------------------|
D|--------------------------------------------------------------------------|
[ Tab from: http://www.guitartabs.cc/tabs/u/unwritten_law/shallow_tab_ver_4.html ]
e|---------------11-11-9-9--------------------------------------------------|
B|9-9--9-9-9-9-9-------------(x2)-------------------------------------------|
G|--------------------------------------------------------------------------|
D|--------------------------------------------------------------------------|
A|--------------------------------------------------------------------------|
D|--------------------------------------------------------------------------|

Verse
e|--------------------------------------------------------------------------|
B|--------------------------------------------------------------------------|
G|-------4--6---------------------------------------------------------------|
D|-4--1--4--6---(x2)--------------------------------------------------------|
A|-4--1--2--4---------------------------------------------------------------|
D|-4--1---------------------------------------------------------------------|

e|---------------------------------------------------------------------------|
B|---------------------------------------------------------------------------|
G|-4-6---------4-6-----------------------------------------------------------|
D|-4-6--4-3-1--4-6--4---(x2)-------------------------------------------------|
A|-2-4--4-3-1--2-4--4--------------------------------------------------------|
D|------4-3-1-------4--------------------------------------------------------|

Verse
Chorus

Refrain
e|---------------------------------------------------------------------------|
B|---------------------------------------------------------------------------|
G|---4-----6-----------------------------------------------------------------|
D|1--4--4--6---(x8)----------------------------------------------------------|
A|1--2--4--4-----------------------------------------------------------------|
D|1-----4--------------------------------------------------------------------|

Chorus x2
Comments