Unwritten Law - Seeing Red Chords & Tabs

 

Seeing Red Chords & Tabs

Unwritten Law Chords & Tabs

Version: 1 Type: Tab 0 ratings
1 star 2 stars 3 stars 4 stars 5 stars
comments

Seeing Red Tab

--------------------------------------------------------------------------
--------------------------------------------------------------------------
--------0------o---0-----o----0----0--------0----0---0-------0---------0----
-----4-----4-----4-----4--4------4-------4----4----4------4----4----4----4----
--3---------3-------------------------3--------3-----------------2---------
----------------------3-----3---------------------------0------------------

[ Tab from: http://www.guitartabs.cc/tabs/u/unwritten_law/seeing_red_tab.html ]
------------------------------------------------------------------------------------:--
------------------------------------------------------------------------------------:--
------------------0------4---4--------0------0---0--------0--------0------0---0-----:--
---------------4----4------0-------4----4------4-------4----4---4----4------4-------:---
------------3----------3----------------------------5---------5--------5------------:---
--------------------------------3---------3-----------------------------------------:---
---------5---
------4------
---0------hold---



-------------------------------------------------------------------------
-------------------------------------------------------------------------
----5--5--5--5--5--x--x--x---
Comments