Unwritten Law - Seeing Red Chords & Tabs

 

Seeing Red Chords & Tabs

Unwritten Law Chords & Tabs

Version: 2 Type: Bass Tab 0 ratings
1 star 2 stars 3 stars 4 stars 5 stars
comments

Seeing Red Bass Tab

--------------------------------------------------------------------------------
                           Seeing Red  - UnWritten Law
--------------------------------------------------------------------------------

Artist: Unwritten Law
Song: Seeing Red
Tabbed by: Zero is great man
Tunning: BEADG

Main Riff:
"You're feeling blue now..."
G|-----------------------------------|
D|-----------------------------------|
A|-/2-------/2-------/2------4-------|
E|-----/2----------------/2----------|
B|--------------/4-------------------|

[ Tab from: http://www.guitartabs.cc/tabs/u/unwritten_law/seeing_red_btab_ver_2.html ]
Chorus: 
"So Follow, The leader down, And Swallow"
G|-------------------------------------|
D|-------------------------------------|
A|-2-2-2-2-2-----------------2-2-2-2-2-|
E|------------2-2-2-2-2-2-2------------|
B|-------------------------------------|

"Your pride and drown, When there's no place left to go..."
G|--------------------------------------------------------------|
D|--------------------------------------------------------------|
A|----------------2-2-2-2-2-------------4-4-4-4-4-4-8-8-8-9-9-9-|
E|---------------------------2-2-2-2-2--------------------------|
B|-4-4-4-4-4-4-4------------------------------------------------|

Yeah so that's about it, Play the main riff as the intro/verse/outro,
And Play the chorus for the chorus.

| ~ - Vibreto
| b - Bend Note
|() - Bend to fret pitch
| s - Slap
| t - Tap
| x - Muted Note
| . - Palm Mute
| + - Harmonics
| / - Slide up
| \ - Slide down
| p - Pull off
| h - Hammer on

================================================================================
Comments