Unwritten Law - Seein Red Chords & Tabs

 

Seein Red Chords & Tabs

Unwritten Law Chords & Tabs

Version: 2 Type: Tab 0 ratings
1 star 2 stars 3 stars 4 stars 5 stars
comments

Seein Red Tab

Artist:  Unwritten Law
Song:  Seein' Red

Notes:  1) This song has two guitar parts:  I tabbed it for one.
        2) The *5* and *12* in the chorus are harmonics.
        3) The progression for the song is:

           VERSE 1
           CHORUS        (Each verse has a different final four
           VERSE 2        measures and the third verse has an
           CHORUS         additional "final progression".)
           VERSE 3

           The verses are clean and the choruses are distorted.

VERSES:

E------------------------------------------------------------------
B------------------------------------------------------------------
G-------0-----0---0-----0-----0---0-----0-----0---0-----0-----0---0
D-----4---4-----4-----4---4-----4-----4---4-----4-----4---4-----4--
A---3-------3-----------------------3-------3----------------------
E-------------------3-------3-----------------------0-------0------

E------------------------------------------------------------------
B------------------------------------------------------------------
G-------0-----0---0-----0-----0---0-----0-------0-------0-----0---0
D-----4---4-----4-----4---4-----4-----4---4---4---4---4---4-----4--
A---3-------3-----------------------5-------5-------5-------0------
E-------------------3-------3--------------------------------------

E------------------------------------------------------------------
B------------------------------------------------------------------
G-------0-----0---0-----0-----0---0-----0-----0---0-----0-----0---0
D-----4---4-----4-----4---4-----4-----4---4-----4-----4---4-----4--
A---3-------3-----------------------3-------3----------------------
E-------------------3-------3-----------------------0-------0------

*******************************************************************

***(THIS PART AT THE END OF VERSE 1)***

E------------------------------------------------------------------
B------------------------------------------------------------------
G-------0-----0---0-----0-----0---0--0---(LET RING)----------------
D-----4---4-----4-----4---4-----4----4---(LET RING)----------------
A---3-------3------------------------5---(LET RING)----------------
E-------------------3-------3--------------------------------------

*******************************************************************

***(THIS PART AT THE END OF VERSE 2)***

E------------------------------------------------------------------
B------------------------------------------------------------------
G-------0-----0---0-----0-----0---0-----0-------0-------0-------0--
D-----4---4-----4-----4---4-----4-----4---4---4---4---4---4---4----
A---3-------3-----------------------5-------5-------5-------5------
E-------------------3-------3--------------------------------------

*******************************************************************

***(THIS PART AT THE END OF VERSE 3)***

E------------------------------------------------------------------
B------------------------------------------------------------------
G-------0-----0---0-----0-----0---0--0---(LET RING)----------------
D-----4---4-----4-----4---4-----4----4---(LET RING)----------------
A---3-------3------------------------5---(LET RING)----------------
E-------------------3-------3--------------------------------------
[ Tab from: http://www.guitartabs.cc/tabs/u/unwritten_law/seein_red_tab_ver_2.html ]
E------------------------------------2---(LET RING)----------------
B---------1---------------3-------3--3---(LET RING)----------------
G-------0-----0---0-----0-----0------2---(LET RING)----------------
D-----2---------2-----0---------0----0---(LET RING)----------------
A---3--------------------------------------------------------------
E-------------------3----------------------------------------------

*******************************************************************

CHORUS:

E--------------------------------------------------------------------
B--------------------------------------------------------------------
G---5-5-5-5-5---X-X-X---X---X-*5*------------------------------------
D---5-5-5-5-5---X-X-X---X---X---------5-5-5-5-5-5-5-5-5-5-5-5-5-5-5-5
A---3-3-3-3-3---X-X-X---X---X---------5-5-5-5-5-5-5-5-5-5-5-5-5-5-5-5
E-------------------------------------3-3-3-3-3-3-3-3-3-3-3-3-3-3-3-3

E-------------------------------*12*---------------------------------
B--------------------------------------------------------------------
G---5-5-5-5-5---X-X-X-X---X---X--------------------------------------
D---5-5-5-5-5---X-X-X-X---X---X-------2-2-2-2-2-2-2-2-2-2-2-2-2-2-2-2
A---3-3-3-3-3---X-X-X-X---X---X-------2-2-2-2-2-2-2-2-2-2-2-2-2-2-2-2
E-------------------------------------0-0-0-0-0-0-0-0-0-0-0-0-0-0-0-0

E--------------------------------------------------------------------
B--------------------------------------------------------------------
G---5---5---5---5---5---5---5---5------------------------------------
D---5---5---5---5---5---5---5---5---5---5---5---5---5---5---5---5----
A---3---3---3---3---3---3---3---3---5---5---5---5---5---5---5---5----
E-----------------------------------3---3---3---3---3---3---3---3----

E--------------------------------------------------------------------
B--------------------------------------------------------------------
G---7---7---7---7---7---7---7---7--11--11--11--11--14--14--14--14----
D---7---7---7---7---7---7---7---7---X---X---X---X---X---X---X---X----
A---5---5---5---5---5---5---5---5---9---9---9---9--12--12--12--12----
E--------------------------------------------------------------------

E--------------------------------------------------------------------
B--------------------------------------------------------------------
G---5-5-5-5-5---X-X-X---X---X-*5*------------------------------------
D---5-5-5-5-5---X-X-X---X---X---------5-5-5-5-5-5-5-5-5-5-5-5-5-5-5-5
A---3-3-3-3-3---X-X-X---X---X---------5-5-5-5-5-5-5-5-5-5-5-5-5-5-5-5
E-------------------------------------3-3-3-3-3-3-3-3-3-3-3-3-3-3-3-3

E-------------------------------*12*---------------------------------
B--------------------------------------------------------------------
G---5-5-5-5-5---X-X-X-X---X---X--------------------------------------
D---5-5-5-5-5---X-X-X-X---X---X-------2-2-2-2-2-2-2-2-2-2-2-2-2-2-2-2
A---3-3-3-3-3---X-X-X-X---X---X-------2-2-2-2-2-2-2-2-2-2-2-2-2-2-2-2
E-------------------------------------0-0-0-0-0-0-0-0-0-0-0-0-0-0-0-0

E--------------------------------------------------------------------
B--------------------------------------------------------------------
G---5---5---5---5---5---5---5---5------------------------------------
D---5---5---5---5---5---5---5---5---5---5---5---5---5---5---5---5----
A---3---3---3---3---3---3---3---3---5---5---5---5---5---5---5---5----
E-----------------------------------3---3---3---3---3---3---3---3----

E--------------------------------------------------------------------
B--------------------------------------------------------------------
G---7---7---7---7---7---7---7---7--11--11--11--11--14--14--14--14----
D---7---7---7---7---7---7---7---7---X---X---X---X---X---X---X---X----
A---5---5---5---5---5---5---5---5---9---9---9---9--12--12--12--12----
E--------------------------------------------------------------------

Comments