Unwritten Law - Seein Red Chords & Tabs

 

Seein Red Chords & Tabs

Unwritten Law Chords & Tabs

Version: 1 Type: Tab 0 ratings
1 star 2 stars 3 stars 4 stars 5 stars
comments

Seein Red Tab

   
Band:Unwritten Law
Song:Seein' Red
Tabbed By: J.B. Tripp w/help from Micheal Choy. Thanks!

Tune 1/2 step down (Eb Ab Db Gb Bb Eb)
Intro and Verse 
|-----------------------------------------------------------------------------
|-----------------------------------------------------------------------------
|------0---0-0----0----0-0----0----0-0-----0----0-0----0----0-0----0----0-0---
|-----4-4---4----4-4----4----4-4----4-----4-4----4----4-4----4----4-4----4----
|---3-----3----------------3-----3------------2-----3-----3-------------------
|--------------3-----3------------------0----(0)----------------3-----3-------


------------------------|-----------------------------------------------------
------------------------|-----------------------------------------------------
-----0-----0----0-----0-|---0----0-0----0----0-0----0----0-0---0----0-0----0--
----4-4---4-4--4-4---4-4|--4-4----4----4-4----4----4-4----4---4-4----4----4-4-
--5-----5-----5----5----|3-----3-----------------3-----3----------2-----3-----
------------------------|------------3-----3-----------------0---(0)----------


------------------------------------------------------------------------------
-----------------------Let Ring-----------------------------------------------
----0-0----0----0-0---0---(0)-------------------------------------------------
-----4----4-4----4---4----(4)-------------------------------------------------
--3-----------------5-----(5)-------------------------------------------------
--------3-----3--------------------------------------------------------------- 


CHORUS 2x guitar 1 harmonic                                 Section A.
--------xx-x-x-x---------------------------xxx-x-x-x-------------------
--------xx-x-x-x---------------------------xxx-x-x-x-------------------
%-55555-xx-x-x-x---------------------55555-xxx-x-x-x-------------------
%-55555-xx-x-x-x-------5555555555555555-55555-xxx-x-x-x-----2222222222222222--
--33333-xx-x-x-x-------5555555555555555-33333-xxx-x-x-x-----2222222222222222--
--------xx-x-x-x-------3333333333333333-------xxx-x-x-x-----0000000000000000--
        P.M.                                  P.M.
       "So follow..."
[ Tab from: http://www.guitartabs.cc/tabs/u/unwritten_law/seein_red_tab.html ]
Chorus guitar 1. (con)                      1st Repeat____  2nd Repeat________
----------------------------------------------------------|-------------------
----------------------------------------------------------|-------------------
-5555--------------7777----11-11-11-11----14-14-14-14----%|-14-------12-------
-5555-4x-5555-----------4x-------------2x-------------2x-%|-------------------
-3333----5555-4x---5555----9--9--9--9-----12-12-12-12-----|-12-------10-------
---------3333---------------------------------------------|------------------- 

chorus guitar 2
Section A.
------------------------------
------------------------------
-----------9999-12-12-12-12---
--22222222--------------------
--22222222-7777-10-10-10-10---
--00000000--------------------

Play Verse 2x

Chorus 2x
"So follow..."

Solo Break
------------------------------------------------------------------------------
------7/8-------7/8-------7/8---5---7/8\7-5----7/8-------7/8------------------
--7------7--7------7--7------7----4--------7------7--7------7--7-Let Ring-----
----5-----5---5-----5---5-----5--------------5-----5---5-----5----------------
------------------------------------------------------------------------------
------------------------------------------------------------------------------

Outro Verse
------------------------------------------------------------------------------
------------------------------------------------------------------------------
-(5)--(4)--(5)--(8)--(5)--(4)--(8)-0-----0-----0-----0-----0----0-0----0------
----------------------------------4-4---4-4---4-4---4-4---4-4----4----4-4-----
--------------------------------5-----5-----5-----5-----3-----3---------------
--------------------------------------------------------------------3---------
Delay with Volume pedal/knob


------------------------------------------------------------------------------
------------------------------------------------------------------------------
---0-0----0----0-0----0----0-0----0----0-0----0----0-0---0--Let Ring----------
----4----4-4----4----4-4----4----4-4----4----4-4----4---4---------------------
-------3-----3-----------2-----3-----3-----------------5----------------------
-3-----------------0------------------------3-----3---------------------------
                                                    All I want to hear is your


---------------------------------2--------------------------------------------
-------1--------------3------3--3---Let Ring----------------------------------
-----0----0---0----------0-----2----------------------------------------------
---2--------2-------0------0--------------------------------------------------
-3----------------2-----------------------------------------------------------
----------------3-------------------------------------------------------------
...voice 

Comments