Unwritten Law - Seein Red Chords & Tabs

 

Seein Red Chords & Tabs

Unwritten Law Chords & Tabs

Version: 1 Type: Bass Tab 0 ratings
1 star 2 stars 3 stars 4 stars 5 stars
comments

Seein Red Bass Tab

SEEIN' RED - Unwritten Law

By: The Duke

X = mute 

Guitar Intro

Verse #1
G|-----------------------|
D|-----------------------|  1x
A|--3-----3-----3-----5--|
E|-----3-----0-----3-----|

Chorus- "So follow..."
G|-------------------------------------------|
D|-------------------------------------------|   2x
A|--33-33-3-X-----33-33-3-X------3>------5>--|
E|-------------3>------------0>------3>------|
[ Tab from: http://www.guitartabs.cc/tabs/u/unwritten_law/seein_red_btab.html ]
Bridge #1
G|--------------|
D|--------------|  1x
A|--3-----3-----|
E|-----3-----0--|

Verse #2
G|-----------------------|------------|
D|-----------------------|------------|  2x
A|--3-----3-----3-----5--|--12--10-7--|
E|-----3-----0-----3-----|------------|

Chorus- 2x

Bridge #2
G|-----------------------------|
D|-----------------------------|  1x
A|--3>------3>------3>------5--|
E|------3>------0>------3>-----|

Verse #2- 2x

That's it. Enjoy.
Comments