Unwritten Law - Seein3 Red Chords & Tabs

 

Seein3 Red Chords & Tabs

Unwritten Law Chords & Tabs

Version: 1 Type: Tab 0 ratings
1 star 2 stars 3 stars 4 stars 5 stars
comments

Seein3 Red Tab

#---------------------------------YOU BEST NOTE-------------------------------#
#This file is the author's own work and represents their interpretation of the#
#song. You may only use this file for private study, scholarship, or research.#
#-----------------------------------------------------------------------------#
#---------------------------------YOU BEST NOTE-------------------------------#
#This file is the author's own work and represents their interpretation of the#
#song. You may only use this file for private study, scholarship, or research.#
#-----------------------------------------------------------------------------#


Seein' Red (Elva)

Unwritten Law

Transcribed by Brian S.


Tune Down 1/2 Step

Key :

 - Natural Harmonic


Intro :
e------------------|------------------|------------------|
b------------------|------------------|------------------|
g------0-----0---0-|-----0------0---0-|-----0-----0---0--|
d----4---4-----4---|---4---4------4---|---4---4-----4----|
a--3-------3-------|------------------|-3-------3--------|
e------------------|-3--------3-------|------------------|

e------------------|------------------|-------------------|
b------------------|------------------|-------------------|
g------0-----0---0-|-----0-----0---0--|o-----0-------0---o|
d----4---4-----4---|---4---4-----4----|o---4---4---4---4-o|
a-----------2------|-3-------3--------|--5-------5--------|
e--0---------------|------------------|-------------------|

e------------------|------------------|------------------|
b------------------|------------------|------------------|
g------0-----0---0-|-----0------0---0-|-----0-----0---0--|
d----4---4-----4---|---4---4------4---|---4---4-----4----|
a--3-------3-------|------------------|-3-------3--------|
e------------------|-3--------3-------|------------------|

e------------------|------------------|------------------|
b------------------|------------------|------------------|
g------0-----0---0-|-----0-----0---0--|--0----------(0)--|
d----4---4-----4---|---4---4-----4----|--4----------(4)--|
a-----------2------|-3-------3--------|--5----------(5)--|
e--0---------------|------------------|------------------|


Chorus w/ Two guitars :
e---------------------------|---------------------------|
b---------------------------|---------------------------|
g--5---5-5---5--x-x--x-x-|-------------------------5-|
d--5---5-5---5--x-x--x-x----|-5-5-5-5--5-5-5-5--5-5-5-5-|
a--3---3-3---3--x-x--x-x----|-5-5-5-5--5-5-5-5--5-5-5-3-|
e--3---3-3---3--------------|-3-3-3-3--3-3-0-3--0-3-3-3-|
[ Tab from: http://www.guitartabs.cc/tabs/u/unwritten_law/seein3_red_tab.html ]
e--------------------------|-------------------------------|
b----------------------x-------|-------------------------------|
g--5-5-5-5--5--x-x---x-x----|-----------9-9-9-9-12-12-12-12-|
d--5-5-5-5--5--x-x-x-x-x-----2-|-2-2-2-2-2---------------------|
a--3-3-3-3--3--x-x-x-x-------2-|-2-2-2-2-2-7-7-7-7-10-10-10-10-|
e----------------------------0-|-0-0-0-0-0---------------------|

e---------------------------|---------------------------|
b---------------------------|---------------------------|
g-5-5-5-5--5-5-5-5--5-5-5-5-|---------------------------|
d-5-5-5-5--5-5-5-5--5-5-5-5-|-5-5-5-5--5-5-5-5--5-5-5-5-|
a-3-3-3-3--3-3-3-3--3-3-3-3-|-5-5-5-5--5-5-5-5--5-5-5-5-|
e-3-3-3-3--3-3-3-3--3-3-3-3-|-3-3-3-3--3-3-3-3--3-3-3-3-|

e---------------------------|----------------------------------|
b---------------------------|----------------------------------|
g-7-7-7-7--7-7-7-7--7-7-7-7-|-11-11-11-11-11-11-14-14-14-14-14-|
d---------------------------|----------------------------------|
a-5-5-5-5--5-5-5-5--5-5-5-5-|-9--9--9--9--9--9--12-12-12-12-12-|
e---------------------------|----------------------------------|

Interlude :
e---------------------|---------------------|
b---------7-h8--------|---------7-h8--------|
g--7---0--------7--0--|--7---0--------7--0--|
d---------------------|---------------------|
a---------------------|---------------------|
e---------------------|---------------------|

e---------------------|---------------------|
b---------7-h8--------|------0--7-h8--7-----|
g--7---0--------7--0--|--9---------------9\-|
d---------------------|---------------------|
a---------------------|---------------------|
e---------------------|---------------------|

e---------------------|---------------------|
b---------7-h8--------|---------7-h8--------|
g-\7---0--------7--0--|--7---0--------7--0--|
d---------------------|---------------------|
a---------------------|---------------------|
e---------------------|---------------------|

e---------------------|---------------------|
b---------------------|---------------------|
g--7------------------|--(7)----------------|
d--7------------------|--(7)----------------|
a--5------------------|--(5)----------------|
e--5------------------|--(5)----------------|


Outro :
e----------------------------|----------------------------|
b-----------1--(1)-----------|-----------3--(3)--------3--|
g--------0----------0-----0--|--------0----------0--------|
d-----2----------------2-----|-----0----------------0-----|
a--3-------------------------|----------------------------|
e----------------------------|--3-------------------------|

e--2------------(2)----|
b--3------------(3)----|
g--2------------(2)----|
d--0------------(0)----|
a----------------------|
e----------------------|
Comments