Unwritten Law - Save Me Chords & Tabs

 

Save Me Chords & Tabs

Unwritten Law Chords & Tabs

Version: 1 Type: Tab 0 ratings
1 star 2 stars 3 stars 4 stars 5 stars
comments

Save Me Tab

   
tuned half a step down (Eb, Ab, Db, Gb, Bb, Eb)


verse
------------------------------------|
----3-2-3---2-3-2--3-2-3----3-2-3---|
------------------------------------|
-0----------------------------------|
------------0-------2---------------|
-------------------------------3----|
the second verse they play the open note on the d string an extra time

chorus (figure out the rhythm on your own, its late, i'm lazy)

------------------------------------|
------------------------------------|
-7---------7------------------------|
-7--7-9-5-7-7-----------------------|
-5--7-9-5-5-7-----------------------|
----5-7-3----5----------------------|
[ Tab from: http://www.guitartabs.cc/tabs/u/unwritten_law/save_me_tab.html ]
breakdown
--------------------------------------|
--------------------------------------|
--------7-----------------------------|
-9-7-5-7-7-5-7-2-5-7------------------|
-9-7-5-5-7-5-7-2-5-7------------------|
-7-5-3---5-7-5-0-3-5------------------|

acoustic part

comes in at the end of the 3rd verse or whatever

-2-3--2-0--2--3------------------------|
-2-3--3-2--2--3------------------------|
-4-0--2-2--4--0------------------------|
-4-0--0-2--4--0------------------------|
-2-2----0--2--2------------------------|
---3-----------3-----------------------|

the electric guitar that comes up on the acoustic are just B5 and G5 chords

the last 3 chords are
------------------------------------|
------------------------------------|
------7-----------------------------|
-5-7-7------------------------------|
-5-7-5------------------------------|
-3-5--------------------------------|
Comments