Unwritten Law - Rest Of My Life Chords & Tabs

 

Rest Of My Life Chords & Tabs

Unwritten Law Chords & Tabs

Version: 6 Type: Tab 0 ratings
1 star 2 stars 3 stars 4 stars 5 stars
comments

Rest Of My Life Tab

--------------------------------------------------------------------------
		     Rest of my Life - Unwritten Law
--------------------------------------------------------------------------

INTRO
e|----------------3------------------------------3-------------------|
B|-------------------3------------------------------3----------------|
G|--------------0-------0---------------------0--------0-------------|
D|--------------------------------------------------------0----------|
A|--0--2--0--------------------0--2--0-------------------------------|
E|-----------3--------------2-----------2--0-------------------------|

[ Tab from: http://www.guitartabs.cc/tabs/u/unwritten_law/rest_of_my_life_tab_ver_6.html ]
e|----------------3---------------3--------------3-----------3-------|
B|-------------------3---------------3--------------3--------3-------|
G|--------------0-------0------0--------0-----0--------0-------------|
D|-------------------------------------------------------------------|
A|--0--2--0--3--------------2--------------0-------------------------|
E|--------------------------------------------------------2----------|

VERSES
e|--7---------7--5--------5--7--------7--5---------------------------|
B|-----0------------0-----------0-----------0------------------------|
G|--------5------------5-----------5-----------5---------------------|
D|-------------------------------------------------------------------|
A|-------------------------------------------------------------------|
E|-------------------------------------------------------------------|


e|--5--8--------8--7--------7--5---------5--3--2---------------------|
B|--------0-----------0-----------0---------3------------------------|
G|-----------5-----------5-----------5-------------------------------|
D|-------------------------------------------------------------------|
A|-------------------------------------------------------------------|
E|-------------------------------------------------------------------|
Comments