Unwritten Law - Rest Of My Life Chords & Tabs

 

Rest Of My Life Chords & Tabs

Unwritten Law Chords & Tabs

Version: 3 Type: Tab 0 ratings
1 star 2 stars 3 stars 4 stars 5 stars
comments

Rest Of My Life Tab

-------------3-------------------3----------------
--------------3-------------------3---------------
---------------0-------------------0--------------
-------------------------------------0------0-----
-0-2-0-------------0-2-0--------------0-2-0-------
-------2-3-3-----2-------2-0-0--------------------


[ Tab from: http://www.guitartabs.cc/tabs/u/unwritten_law/rest_of_my_life_tab_ver_3.html ]
------3--------3-------3--------------------------
-------3--------3-------3-------------------------
--------0--------0-------0------------------------
--------------------------------0-----------------
-3-3------2-2------0-0----------------------------
-----------------------------2--------------------


I did a version of this before but it was wrong so I corrected it

By Carly Ford
Comments