Unwritten Law - Rescue Me Chords & Tabs

 

Rescue Me Chords & Tabs

Unwritten Law Chords & Tabs

Version: 2 Type: Tab 0 ratings
1 star 2 stars 3 stars 4 stars 5 stars
comments

Rescue Me Tab

----------------------------------------------------
--------------------------------------------------
-----------------------------------------------------
---------------------------------------------------
--2-----2-2---3-3---2-2--0-0--2-2--------------------------- repeat 3
--0--------------------------------------------------  
THEN

--------------------------------------------------------
--------------------------------------------------------
-------------------------------------------------------
----------------------------------------------------------
-2-2--2-2---3-3-3-3---5BEND----------------------------------------
-0-0-----------------------------------------------------
[ Tab from: http://www.guitartabs.cc/tabs/u/unwritten_law/rescue_me_tab_ver_2.html ]
-----------------------------------------------------------
-------------------------------------------------------------
---8-----1-------------------------------------------------------
---x-----x------------------------------------------------------
---6-----9----------------------------------------------------
-----------------------------------------------------------


then you just PM the first line  ^^^^
                                 
  
     i dont know how accurate this tab is, my friend showed me it. 
ive never heard the song before cept for he played it so i dont know
about the strumming and what not. and i forget the rest of the song too,
if there was anything i left out sorry
Comments