Unwritten Law - Rescue Me Chords & Tabs

 

Rescue Me Chords & Tabs

Unwritten Law Chords & Tabs

Version: 1 Type: Tab 0 ratings
1 star 2 stars 3 stars 4 stars 5 stars
comments

Rescue Me Tab

   
Unwritten Law - Rescue Me 
Tabbed by Alex Tse, Figure out the order yourself

Intro guitar a						  
--------------------------:-------------------:------------    
--------------------------:-------------------:------------    
--------------------------:-------------------:---7----8---    
---22---------------------:--22-----0---------:---7----8---   
---22---2233220022--------:--22--232----------:---5x4--6x4-   
---00-------------------x3:--00---------------:------------   
Play 2nd time with			
PM and skip second

Guitar B(Played when PM starts)
----0-----------------------------
----0x12-------------------------
---------------------------------
---------------------------------
---------------------------------
---------------------------------
Play this after playing other part twice

Verse guitar A									
 ----------------------------------------------------------------------------------  
 ----------------------------------------------------------------------------------  
----------------------------------------------------------------------------------  
---2---------------------5---------------------22---55--22----------------------  
---2----2233220022-------5--2233220022---------22---55--22--2233220022-------  
---0---------------------3---------------------00---33--00-----------------------  
Pm......................... x2	

Guitar B
-0-3-0-0--
-0-3-1-0--
----------
---------
---------
---------
each played 4x





[ Tab from: http://www.guitartabs.cc/tabs/u/unwritten_law/rescue_me_tab.html ]
bridge
--------------   ------------------------      -------------
-------------    ------------------------     --------------
-------7---     -------------------------     -------7----
--5----7----     ---2-------------------     ----5---7----
--5----5-x5-     ---2-2233220022--------x2    ---5---5-x5-
--3-x5------     ---0-------------------      ---3-x5------
		   Pm..............

Chorus guitar a		
--------------------------	
--------------------------	
---------------5----------	
------2--5----5--5--4---	
------2--5----3--5--4---	
------0--3--------3--2-	
Play each 8 times

Guitar solo part(not exactly right)played during chorus
-------------------12-12-10-----------------------------
-------5-5/8--8------------12-8-8\5-5-/12-12-10-----
-------------------------------------------------------11-
--------------------------------------------------------
----------------------------------------------------------
----------------------------------------------------------

bridge B
----------------------------------------------------------
----------------------------------------------------------
----------------------------------------------------------
--22------------55-----------77------------------------
--22--23202-----55-23202-----77-2320------------------
--00------------33-----------55-----3----------------x2

Bridge c same as intro except add
------------
------------
------------
----77-----
----77----- played many times
----55-----
Comments