Unwritten Law - Mean Girl Chords & Tabs

 

Mean Girl Chords & Tabs

Unwritten Law Chords & Tabs

Version: 1 Type: Tab 0 ratings
1 star 2 stars 3 stars 4 stars 5 stars
comments

Mean Girl Tab

Unwritten Law  Mean Girl

Intro
e:-----------------------------------1-------3-------1-----------------------0------
B:-------3-------------2-----------3---3-------3-------3------------3--------2------
G:-----3---3---------2---2-------2-------2-------2-------2--------3---3------2------
D:---3-------3-----2-------2---0-----------0-------0-------0----3-------3----2------
A:-1-----------1-0-----------0--------------------------------1-----------1--0------
D:----------------------------------------------------------------------------------
[ Tab from: http://www.guitartabs.cc/tabs/u/unwritten_law/mean_girl_tab.html ]
Verse
e:--------------------------------------------------------:-------------------------
B:--------------------------------------------------------:-------------------------
G:--------------------------------------------------------:-------------------------
D:-3-0-3-0-3-5--3--0------------------------------3-------:----------------3--------
A:-3-0-3-0-3-5--3--0------------------------------3-------:- Last Time ----3--------
D:-3-0-3-0-3-5--3--0------------------------------3-------:----------------3--------
                                                            
Chorus
e:----------------------------------------------------------------------------------
B:----------------------------------------------------------------------------------
G:----------------------------------------------------------------------------------
D:-8-8-8-8--7-7-7-7--0-0-0-0--1-1-2-2--8-8-8-8--7-7-7-7-----------------------------
A:-8-8-8-8--7-7-7-7--0-0-0-0--1-1-2-2--8-8-8-8--7-7-7-7-----------------------------
D:-8-8-8-8--7-7-7-7--0-0-0-0--1-1-2-2--8-8-8-8--7-7-7-7-----------------------------

e:----------------------------------------------------------------------------------
B:----------------------------------------------------------------------------------
G:----------------------------------------------------------------------------------
D:-7h8p7--0--0-0-0-0--7h8p7--0--0-0-0-0---------------------------------------------
A:-7h8p7--0--0-0-0-0--7h8p7--0--0-0-0-0---------------------------------------------
D:-7h8p7--0--0-0-0-0--7h8p7--0--0-0-0-0---------------------------------------------

e:----------------------------------------------------------------------------------
B:----------------------------------------------------------------------------------
G:----------------------------------------------------------------------------------
D:-8-8-8-8--7-7-7-7--0-0-0-0--1-1-2-2--8-8-8-8--7-7-7-7-6-7-------------------------
A:-8-8-8-8--7-7-7-7--0-0-0-0--1-1-2-2--8-8-8-8--7-7-7-7-6-7-------------------------
D:-8-8-8-8--7-7-7-7--0-0-0-0--1-1-2-2--8-8-8-8--7-7-7-7-6-7-------------------------

Verse

Chorus

Bridge (pm first few times)(no pm the last few times)
e:----------------------------------------------------------------------------------
B:----------------------------------------------------------------------------------
G:----------------------------------------------------------------------------------
D:-3-0-3-0-3-5----------------------------------------------------------------------
A:-3-0-3-0-3-5----------------------------------------------------------------------
D:-3-0-3-0-3-5----------------------------------------------------------------------

Chorus x 2
Comments