Unwritten Law - I Like The Way Chords & Tabs

 

I Like The Way Chords & Tabs

Unwritten Law Chords & Tabs

Version: 1 Type: Tab 0 ratings
1 star 2 stars 3 stars 4 stars 5 stars
comments

I Like The Way Tab

   
“I Like the Way” by: Unwritten Law
Tabbed by: Chris Gill
Email: CGill1403@aol.com

Music By: Scott Russo, Steve Morris, Rob Brewer, Pat Kim, Tony Palermo
Lyrics By: Scott Russo

Tuning: Eb Ab Db Gb Bb Eb

|------------------------------------------------------|
|------------------------------------------------------|
|--2----2---2-2-2-2-4-4--4-4-5----5---5-5-5-5-7-7-7-7--|
|--2----2---2-2-2-2-4-4--4-4-5----5---5-5-5-5-7-7-7-7--|
|--0----0---0-0-0-0-2-2--2-2-3----3---3-3-3-3-5-5-5-5--|
|------------------------------------------------------|

|------------------------------------------------------|
|------------------------------------------------------|
|------------------------------------------------------|
|------------------------------------------------------|
|--0----0---0-0-0-0-2-2--2-2-3----3---3-3-3-3-5-5-5-5--|
|------------------------------------------------------|

|--0------2------3------5--|       |--0------2--|
|--2------4------5------7--|       |--2------4--|
|--2------4------5------7--|       |--2------4--|
|--2------4------5------7--| x3    |--2------4--|
|--------------------------| then  |------------|
|--------------------------|       |------------|

|--------------------------------------------------------------0--------------------2---|
|-----------------------------------------------------------2-----2-----------------4---|
|--------2-----------4-----------5-----------7-----------2-----------2-----------4--4---|
|-----2-----2-----4-----4-----5-----5-----7-----7-----2-----------------2-----4-----4---|
|--0-----------2-----------3-----------5-----------0-----------------------2--------2---|
|---------------------------------------------------------------------------------------|
[ Tab from: http://www.guitartabs.cc/tabs/u/unwritten_law/i_like_the_way_tab.html ]
|---------------------------------------------------|
|---------------------------------------------------|
|-----2--2--x-4----4---x--x-5--5--x-7---7--7--7-----|
|-----2--2--x-4----4---x--x-5--5--x-7---7--7--7-----| x3
|-----0--0--x-2----2---x--x-3--3--x-5---5--5--5-----|
|---------------------------------------------------|

|--0------2------3------5--|       |--0------2--|
|--2------4------5------7--|       |--2------4--|
|--2------4------5------7--|       |--2------4--|
|--2------4------5------7--| x5    |--2------4--|
|--------------------------| then  |------------|
|--------------------------|       |------------|

|--------------------------------------------------------------0--------------------2---|
|-----------------------------------------------------------2-----2-----------------4---|
|--------2-----------4-----------5-----------7-----------2-----------2-----------4--4---|
|-----2-----2-----4-----4-----5-----5-----7-----7-----2-----------------2-----4-----4---|
|--0-----------2-----------3-----------5-----------0-----------------------2--------2---|
|---------------------------------------------------------------------------------------|

|---------------------------------------------------|
|---------------------------------------------------|
|-----2--2--x-4----4---x--x-5--5--x-7---7--7--7-----|
|-----2--2--x-4----4---x--x-5--5--x-7---7--7--7-----| x3
|-----0--0--x-2----2---x--x-3--3--x-5---5--5--5-----|
|---------------------------------------------------|

|-----------------------------------------------------------|
|-----------------------------------------------------------|
|--2-2-2-2-2-2-2-2-4-4-4-4-4-4-4-4-5-5-5-5-5-5-5-5-7-7-7-7--|
|--2-2-2-2-2-2-2-2-4-4-4-4-4-4-4-4-5-5-5-5-5-5-5-5-7-7-7-7--| this is played a lot
|--0-0-0-0-0-0-0-0-2-2-2-2-2-2-2-2-3-3-3-3-3-3-3-3-5-5-5-5--|
|-----------------------------------------------------------|

|--0------2------3------5--|
|--2------4------5------7--|
|--2------4------5------7--|
|--2------4------5------7--| this is played for the rest of the song
|--------------------------|
|--------------------------|


| /  slide up
| \  slide down
| h  hammer-on
| p  pull-off
| ~  vibrato
| +  harmonic
| x  Mute note
===============================================================================

Comments