Unwritten Law - Harmonic Chords & Tabs

 

Harmonic Chords & Tabs

Unwritten Law Chords & Tabs

Version: 1 Type: Tab 0 ratings
1 star 2 stars 3 stars 4 stars 5 stars
comments

Harmonic Tab

Ok this is my first tab ever so I hope it reads ok. This is the intro to Harmonic,
and the 2nd guitar intro w/ it that comes in after the first intro section.

Guitar 1
e-----------------------------------------------------------------|
B-----------------------------------------------------------------|
G-----2-----2---2-----2-----2---2-----2-----2---2-----2-----2---2-|
D-0-0---0-0---0---0-0---0-0---0-----------------------------------|
A-----------------------------------------------------------------|
E---------------------------------0-0---0-0---0---0-0---0-0---0---|

[ Tab from: http://www.guitartabs.cc/tabs/u/unwritten_law/harmonic_tab.html ]
Guitar 1 (cont.)
e-----------------------------------------------------------------|
B-----------------------------------------------------------------|
G-----2-----2---2-----2-----2---2----2-----2---2-----2-----2---2--|
D---------------------------------0-0--0-0---0---0-0---0-0---0----|
A-----------------------------------------------------------------|
E-3-3---3-3---3---3-3---3-3---3-----------------------------------|


Guitar 2 (comes in after 1st round of Guitar 1, Guitar 1 continues to play the intro over again)
e-----------------------------------------------------------------|
B-------------------------------------------3---------------------|
G---0-------0---------------0-------0-----------------------------|
D-0---0-------0---0-0-----0---0-------4---0---0-------------------|
A-------2-0-----0---------------2-0-----0-------------------------|
E-----------------------------------------------------------------|

Sorry no chords yet, I just started playing about 3 months ago and I'm not all that
great yet. Hopefully some chords will come soon.
Comments