Unwritten Law - Geronimo Chords & Tabs

 

Geronimo Chords & Tabs

Unwritten Law Chords & Tabs

Version: 1 Type: Tab 0 ratings
1 star 2 stars 3 stars 4 stars 5 stars
comments

Geronimo Tab

/=slide
pm=palm mute

intro guitar 2
e------------------------------------------------------------------
b------------------------------------------------------------------
g--------4----4------4--4------4---4-------4---4-------------------
d-----2-----2---2--2--2--2--2---2---2--2---2---2-------------------
a---4----4---4---3---3--3------------------------------------------
E------------------------------0---0---0---0---0---0---------------

intro guitar 1
e--------------------------------------
b--------------------------------------
g--13/14/13/7/9------11--11/9---11/9---
d--------------------------------------
a--------------------------------------
E--------------------------------------
[ Tab from: http://www.guitartabs.cc/tabs/u/unwritten_law/geronimo_tab.html ]
For the verse guitar 2 just plays intro
chorus guitar two
e--------------------------------------
b--------------------------------------
g--------------------------------------
d--77777777999999992222222222222222----
a--77777777999999992222222222222222----
E--55555555777777770000000000000000----

chorus guitar 1
e--------------------------------------
b-------3----3---3----3-----3--3-------
g--99---99---9---99---99--9------------
d--------------------------------------
a--------------------------------------
E--------------------------------------

SoLo 2x
e-----------------------------------------------------------------------
b-----------------------------------------------------------------------
g-----------------------------------------------------------------------
d-------2---4-2---2-----2---4-2---2------2-----2----2----2------2----2--
a---44--4-------4---33---3-----3----------------------------------------
E-------------------------------------------00---00----0---00----00--0--
And thats all u need two know to play the whole song.
HoPe U hAd FuN!
Comments