Unwritten Law - Celebration Song Chords & Tabs

 

Celebration Song Chords & Tabs

Unwritten Law Chords & Tabs

Version: 1 Type: Tab 0 ratings
1 star 2 stars 3 stars 4 stars 5 stars
comments

Celebration Song Tab

Unwritten Law
The Celebration song

first tab for this on u-g... i spent weeks listening and tabbing this (no joke) so i'm
sure it's perfect. this song's in dropped d then a half step down... but i just play it
in regular dropped d.

Guitar 1:
E|--------------------------------------|
B|--------------------------------------|
G|--11---------9---------11---------12b-|
D|---x--(x16)--x--(x16)---x--(x16)---x--|(x16)(strum a few times then bend)
A|---9---------7----------9---------10b-|
D|--------------------------------------|

wait for a few seconds (sweet bass part)

E|-------------------------------------------------------------|
B|-------------------------------------------------------------|
G|-------------------------------------------------------------|
D|--0--3-------------------------------------------------------|
A|--0--3-------------------------------------------------------|
D|--0--3----0-00-3p2p0--5p3p0--7p5p0--33-0-3-0-3-0--55-0-5-0-5-|

verse (after bass)

E|---------5----5---5---------5-----5-----5---|
B|------6------6---6-----6--8----6-8---6-8----|
G|---7--------7---7---------------------------|
D|--------------------------------------------|
A|--------------------------------------------|
D|--------------------------------------------|(x2)

chorus

E|-------------------------------------------|
B|-------------------------------------------|
G|--11---------9---------11---------7--------|
D|---x--(x16)--x--(x16)---x--(x16)--x--(x16--|
A|---9---------7----------9---------5--------|
D|-------------------------------------------|

E|---------------------------------|
B|---------------------------------|
G|--11---------9----------7--------|
D|---x--(x16)--x--(x16)---x--(x32--|
A|---9---------7----------5--------|
D|---------------------------------|

post chorus

E|-----------------------------------------------------|
B|-----------------------------------------------------|
G|-----------------------------------------------------|
D|-----------------------------------------------------|
A|-----------------------------------------------------|
D|--0-00-3p2p0--5p3p0--7p5p0--33-0-3-0-3-0--55-0-5-0-5-| (x2)

bass (no guitar)

verse (after bass)

E|---------5----5---5---------5-----5-----5---|
B|------6------6---6-----6--8----6-8---6-8----|
G|---7--------7---7---------------------------|
D|--------------------------------------------|
A|--------------------------------------------|
D|--------------------------------------------|(x2)

chorus

E|-------------------------------------------|
B|-------------------------------------------|
G|--11---------9---------11---------7--------|
D|---x--(x16)--x--(x16)---x--(x16)--x--(x16--|
A|---9---------7----------9---------5--------|
D|-------------------------------------------|

E|---------------------------------|
B|---------------------------------|
G|--11---------9----------7--------|
D|---x--(x16)--x--(x16)---x--(x32--|
A|---9---------7----------5--------|
D|---------------------------------|

post chorus

E|------|
B|------|
G|--7---|
D|--x---| (keep strumming... yes there is a 2nd guitar under it)
A|--5---|
D|------|

bridge

E|----------------------------------------------------|
B|----------------------------------------------------|
G|--6b(7)---------------------------------------------|
D|---x-----(strum while you bend)--00-0-000-0-0-0000--|
A|--4b(5)--------------------------00-0-000-0-0-0000--|
D|---------------------------------00-0-000-0-0-0000--|

E|---------|
B|---------|
G|---------|
D|--6b(7)--|
A|---x-----|(strum while you bend)
D|--4b(5)--|

E|----------------------------------------------------|
B|----------------------------------------------------|
G|--6b(7)---------------------------------------------|
D|---x-----(strum while you bend)--00-0-000-0-0-0000--|
A|--4b(5)--------------------------00-0-000-0-0-0000--|
D|---------------------------------00-0-000-0-0-0000--|

E|---------|
B|---------|
G|---------|
D|--6b(7)--|
A|---x-----|(strum while you bend)
D|--4b(5)--|

chorus

E|-------------------------------------------|
B|-------------------------------------------|
G|--11---------9---------11---------7--------|
D|---x--(x16)--x--(x16)---x--(x16)--x--(x16--|
A|---9---------7----------9---------5--------|
D|-------------------------------------------|

E|---------------------------------|
B|---------------------------------|
G|--11---------9----------7--------|
D|---x--(x16)--x--(x16)---x--(x32--|
A|---9---------7----------5--------|
D|---------------------------------|

E|-------------------------------------------|
B|-------------------------------------------|
G|--11---------9---------11---------7--------|
D|---x--(x16)--x--(x16)---x--(x16)--x--(x16--|
A|---9---------7----------9---------5--------|
D|-------------------------------------------|
[ Tab from: http://www.guitartabs.cc/tabs/u/unwritten_law/celebration_song_tab.html ]
E|---------------------------------|
B|---------------------------------|
G|--11---------9----------7--------|
D|---x--(x16)--x--(x16)---x--(x32--|
A|---9---------7----------5--------|
D|---------------------------------|

outro

E|-----------------------------------------------------|
B|-----------------------------------------------------|
G|-----------------------------------------------------|
D|-----------------------------------------------------|
A|-----------------------------------------------------|
D|--0-00-3p2p0--5p3p0--7p5p0--33-0-3-0-3-0--55-0-5-0-5-| (x4)

end on:

E|------|
B|------|
G|------|
D|--0~--|
A|--0~--| (let it ring)
D|--0~--|

--------------------------------------------------------------

Guitar 2:
E|------------------|
B|------------------|
G|------------------|
D|--0~--2~--4~--5~--|
A|--0~--2~--4~--5~--|
D|--0~--2~--4~--5~--|

wait for a few seconds (sweet bass part)

E|-------------------------------------------------------------|
B|-------------------------------------------------------------|
G|-------------------------------------------------------------|
D|--0--3-------------------------------------------------------|
A|--0--3-------------------------------------------------------|
D|--0--3----0-00-3p2p0--5p3p0--7p5p0--33-0-3-0-3-0--55-0-5-0-5-|

no verse for 2nd guitar

chorus

E|-------------------------------------|
B|-------------------------------------|
G|-------------------------------------|
D|--0--------2--------4--------5-------|
A|--0--(x8)--2--(x8)--4--(x8)--5-------|(x8)
D|--0--------2--------4--------5-------|

E|-----------------------------|
B|-----------------------------|
G|-----------------------------|
D|--0--------2--------0--------|
A|--0--(x8)--2--(x8)--0--(x16--|
D|--0--------2--------0--------|

post chorus

E|-----------------------------------------------------|
B|-----------------------------------------------------|
G|-----------------------------------------------------|
D|-----------------------------------------------------|
A|-----------------------------------------------------|
D|--0-00-3p2p0--5p3p0--7p5p0--33-0-3-0-3-0--55-0-5-0-5-| (x2)

no verse for 2nd guitar

chorus

E|-------------------------------------|
B|-------------------------------------|
G|-------------------------------------|
D|--0--------2--------4--------5-------|
A|--0--(x8)--2--(x8)--4--(x8)--5-------|(x8)
D|--0--------2--------4--------5-------|

E|-----------------------------|
B|-----------------------------|
G|-----------------------------|
D|--0--------2--------0--------|
A|--0--(x8)--2--(x8)--0--(x16--|
D|--0--------2--------0--------|

bridge (i think this is right)

E|-----------------------------|
B|-----------------------------|
G|-----------------------------|
D|--3--------5--------0--------|
A|--3--(x8)--5--(x8)--0--(x16--|
D|--3--------5--------0--------|

then after the 1st guitar does the bending part

E|---------------------|
B|---------------------|
G|---------------------|
D|--00-0-000-0-0-0000--|
A|--00-0-000-0-0-0000--|
D|--00-0-000-0-0-0000--|

then rest after the 2nd bend

and then once again wait for the bend then

E|---------------------|
B|---------------------|
G|---------------------|
D|--00-0-000-0-0-0000--|
A|--00-0-000-0-0-0000--|
D|--00-0-000-0-0-0000--|

then rest for a second

then chorus

E|-------------------------------------|
B|-------------------------------------|
G|-------------------------------------|
D|--0--------2--------4--------5-------|
A|--0--(x8)--2--(x8)--4--(x8)--5-------|(x8)
D|--0--------2--------4--------5-------|

E|-----------------------------|
B|-----------------------------|
G|-----------------------------|
D|--0--------2--------0--------|
A|--0--(x8)--2--(x8)--0--(x16--|
D|--0--------2--------0--------|

E|-------------------------------------|
B|-------------------------------------|
G|-------------------------------------|
D|--0--------2--------4--------5-------|
A|--0--(x8)--2--(x8)--4--(x8)--5-------|(x8)
D|--0--------2--------4--------5-------|

E|-----------------------------|
B|-----------------------------|
G|-----------------------------|
D|--0--------2--------0--------|
A|--0--(x8)--2--(x8)--0--(x16--|
D|--0--------2--------0--------|

then outro

E|-----------------------------------------------------|
B|-----------------------------------------------------|
G|-----------------------------------------------------|
D|-----------------------------------------------------|
A|-----------------------------------------------------|
D|--0-00-3p2p0--5p3p0--7p5p0--33-0-3-0-3-0--55-0-5-0-5-| (x4)

end on:

E|------|
B|------|
G|------|
D|--0~--|
A|--0~--| (let it ring)
D|--0~--|


ok there you go... i worked my butt off for hours making the final tab... so have fun
with it. any comments or questions e-mail me at killinginthename247@yahoo.com
Comments