Unwritten Law - Celebration Song Chords & Tabs

 

Celebration Song Chords & Tabs

Unwritten Law Chords & Tabs

Version: 1 Type: Bass Tab 0 ratings
1 star 2 stars 3 stars 4 stars 5 stars
comments

Celebration Song Bass Tab

   
Unwritten Law
The Celebration Song

ok i already made the first two guitar tabs for this song... so i thought that i'd make
a bass tab too. the tuning is dropped d then another half step down, but i just play it
in regular dropped d. (if you leave it in regular dropped d then you can't play along
with the song)

--------------------------------------------------------------------

intro:

G|------------------------------------------------|
D|-------0-----------0-----------2-----------2----|
A|------------------------------------------------|
D|--0-00---0----0-00---0----2-22---2----2-22---2--|

G|-----------------------------|
D|-------4-----------4---------|
A|-----------------------------|
D|--4-44---4----4-44---4----5--| mute that last note right after you play it

sweet bass part (with distortion)

G|-----------------------------------------------------|
D|-----------------------------------------------------|
A|-----------------------------------------------------|
D|--0-00-3p2p0-5p3p0-7p5p0--3-3-0-3-0-3-0--55-0-5-0-5--|
(you can either do the pull-offs or just finger fast)

then same thing without distortion

G|-----------------------------------------------------|
D|-----------------------------------------------------|
A|-----------------------------------------------------|
D|--0-00-3p2p0-5p3p0-7p5p0--3-3-0-3-0-3-0--55-0-5-0-5--|

verse:

G|---------------------------------------------------------|
D|------------------------------0--------------------------|
A|---------------------------------------------------------|
D|--0000---33333333--55555555----000---33333333--55555555--| (x2)

chorus:

G|------------------------------------------------|
D|-------0-----------0-----------2-----------2----|
A|------------------------------------------------|
D|--0-00---0----0-00---0----2-22---2----2-22---2--|

G|------------------------------------------------|
D|-------4-----------4-----------5-----------5----|
A|------------------------------------------------|
D|--4-44---4----4-44---4----5-55---5----5-55---5--|

G|------------------------------------------------|
D|-------0-----------0-----------2-----------2----|
A|------------------------------------------------|
D|--0-00---0----0-00---0----2-22---2----2-22---2--|

G|-----------------------12-12----12--|
D|-------5-5----5----5-5--------5-----|
A|------------------------------------|
D|--5-5-------5-----------------------|

post-chorus:

G|-----------------------------------------------------|
D|-----------------------------------------------------|
A|-----------------------------------------------------|
D|--0-00-3p2p0-5p3p0-7p5p0--3-3-0-3-0-3-0--55-0-5-0-5--| (x2)

verse:

G|---------------------------------------------------------|
D|------------------------------0--------------------------|
A|---------------------------------------------------------|
D|--0000---33333333--55555555----000---33333333--55555555--| (x2)

chorus:

G|------------------------------------------------|
D|-------0-----------0-----------2-----------2----|
A|------------------------------------------------|
D|--0-00---0----0-00---0----2-22---2----2-22---2--|

G|------------------------------------------------|
D|-------4-----------4-----------5-----------5----|
A|------------------------------------------------|
D|--4-44---4----4-44---4----5-55---5----5-55---5--|
[ Tab from: http://www.guitartabs.cc/tabs/u/unwritten_law/celebration_song_btab.html ]
G|------------------------------------------------|
D|-------0-----------0-----------2-----------2----|
A|------------------------------------------------|
D|--0-00---0----0-00---0----2-22---2----2-22---2--|

G|-----------------------12-12------101210------|
D|-------5-5----5----5-5--------1012------1210--|
A|----------------------------------------------|
D|--5-5-------5---------------------------------|

bridge (very tricky part)

G|--------------------------------------|
D|----------------------------10--------|
A|--------8-----------10--------10--10--|
D|--8--88---8-----10----1010------10----|

G|-------------------------|
D|-------0-------0---0--0--|
A|-------------------------|
D|--0-00----00-----00-00---| (whole bridge x2)

2nd part of the bridge (bass has no part for the first bend)

G|---------------------|
D|---------------------|
A|---------------------|
D|--00-0-000-0-0-0000--|

then

G|---------------------|
D|---------------------|
A|--4444444444444b555--| fast fingering and then bend on the last few notes
D|---------------------|

rest for a second

then no bass for the next bend... then

G|---------------------|
D|---------------------|
A|---------------------|
D|--00-0-000-0-0-0000--|

then one more bend (bass included)

G|---------------------|
D|---------------------|
A|--4444444444444b555--| fast fingering and then bend on the last few notes
D|---------------------|

chorus (a little different)

G|------------------------------------------------|
D|-------0-----------0-----------2-----------2----|
A|------------------------------------------------|
D|--0-00---0----0-00---0----2-22---2----2-22---2--|

G|------------------------------------------------|
D|-------4-----------4-----------5-----------5----|
A|------------------------------------------------|
D|--4-44---4----4-44---4----5-55---5----5-55---5--|

G|------------------------------------------------|
D|-------0-----------0-----------2-----------2----|
A|------------------------------------------------|
D|--0-00---0----0-00---0----2-22---2----2-22---2--|

G|-------------------------------7--|
D|------5-4----7---------9-10--x----|
A|-----------5----------------------|
D|--5----------------5--------------|

G|------------------------------------------------|
D|-------0-----------0-----------2-----------2----|
A|------------------------------------------------|
D|--0-00---0----0-00---0----2-22---2----2-22---2--|

G|------------------------------------------------|
D|-------4-----------4-----------5-----------5----|
A|------------------------------------------------|
D|--4-44---4----4-44---4----5-55---5----5-55---5--|

G|------------------------------------------------|
D|-------0-----------0-----------2-----------2----|
A|------------------------------------------------|
D|--0-00---0----0-00---0----2-22---2----2-22---2--|

G|---------------------------------------------|
D|--5---7---9----10-9--------------------------|
A|-----------------------33---5---7----9-10\0--|
D|---------------------------------------------|

outro:

G|-----------------------------------------------------|
D|-----------------------------------------------------|
A|-----------------------------------------------------|
D|--0-00-3p2p0-5p3p0-7p5p0--3-3-0-3-0-3-0--55-0-5-0-5--| (x4)

end on:

G|------|
D|------|
A|------|
D|--0~--| let it ring


there you go! one sick bass tab to go with my other sick guitar tab. i hope you enjoy.
also check out my guitar tab for this song. if you have any comments or questions you
can e-mail me at killinginthename247@yahoo.com
Comments