Unwritten Law - Cailin Chords & Tabs

 

Cailin Chords & Tabs

Unwritten Law Chords & Tabs

Version: 6 Type: Tab 0 ratings
1 star 2 stars 3 stars 4 stars 5 stars
comments

Cailin Tab

P = Pull off
H = Hammer on

Let the notes ring...
Listen to the song for the timing.

       P         P         P     P     P           H
e-3-3-5-3-3-3-3-5-3-3-3-3-5-3---7-3---5-3---5-3-------3-=
B-3---3---3-3---3---3-3-------3-----3-----3-----3-3-5---=
G-------------------------------------------------------=
D-------------------------------------------------------=
A-------------------------------------------------------=
E-------------------------------------------------------=

[ Tab from: http://www.guitartabs.cc/tabs/u/unwritten_law/cailin_tab_ver_6.html ]
       P         P         P     P     P
e-3-3-5-3-3-3-3-5-3-3-3-3-------------------------------=
B-3---3---3-3---3---3-3---------------3-5-3-------------=
G-------------------------5-0-0-5-0-0-------------------=
D-------------------------------------------------------=
A-------------------------------------------------------=
E-------------------------------------------------------=

       P         P         P     P     P           H
e-3-3-5-3-3-3-3-5-3-3-3-3-5-3---7-3---5-3---5-3-------3-=
B-3---3---3-3---3---3-3-------3-----3-----3-----3-3-5---=
G-------------------------------------------------------=
D-------------------------------------------------------=
A-------------------------------------------------------=
E-------------------------------------------------------=

       P         P         P     P     P
e-3-3-5-3-3-3-3-5-3-3-3-3-------------------------------=
B-3---3---3-3---3---3-3---5-----5-----5---3-------------=
G-------------------------5-0-0-5-0-0-5-0-0-------------=
D-------------------------------------------------------=
A-------------------------------------------------------=
E-------------------------------------------------------=
Comments