Untitled - Money Chords & Tabs

 

Money Chords & Tabs

Untitled Chords & Tabs

Version: 1 Type: Bass Tab 0 ratings
1 star 2 stars 3 stars 4 stars 5 stars
comments

Money Bass Tab

Band:Untitled
Song:Money
Submitted by:Nathan(Bass)and Caleb(Guitar)

Intro X1
----------------------------------------------------
----------------------------------------------------
----------------------------------------------------
-0-0-0-3-3-3-1-1-1----------------------------------
[ Tab from: http://www.guitartabs.cc/tabs/u/untitled/money_btab.html ]
Chorus X4
----------------------------------------------------
----------------------------------------------------
----------------------------------------------------
-0-0-0-3-3-3-5--5--5-3-3----------------------------

1st Riff X3
----------------------------------------------------
----------------------------------------------------
----------------------------------------------------
-0-0-0-3-3-3-0-0-0-3--0-0-0-3-3-3-0-0-0-5-----------

2nd Riff X3
----------------------------------------------------
----------------------------------------------------
----------------------------------------------------
-0-0-0-3-3-3-5-5-5-0-0-0----------------------------

That's about it.
Comments