Untitled - 60 Seconds Of Pain Chords & Tabs

 

60 Seconds Of Pain Chords & Tabs

Untitled Chords & Tabs

Version: 1 Type: Bass Tab 0 ratings
1 star 2 stars 3 stars 4 stars 5 stars
comments

60 Seconds Of Pain Bass Tab

Band:Untitled
Song:60 seconds of pain
Posted by:Nathan G.(bass)and Caleb S.(guitar)

Intro X1
-----------------------------------------------------
-----------------------------------------------------
-----------------------------------------------------
-0-1-0-1-0-1-0-1-0-1---------------------------------

Chorus X4
-----------------------------------------------------
-----------------------------------------------------
-----------------------------------------------------
-5-5-5-5-7-7-5-5-7-7-8-8-----------------------------
[ Tab from: http://www.guitartabs.cc/tabs/u/untitled/60_seconds_of_pain_btab.html ]
Solo X2
-----------------------------------------------------
-------------7-9-8-----------------------------------
-------7-9-8-----------------------------------------
-7-9-8-------------7-9-8-----------------------------

1st Riff X3
-----------------------------------------------------
-----------------------------------------------------
-----------------------------------------------------
-7-7-7-5-5-5-3-3-3-----------------------------------

For best sound use a DOD Bass Overdrive
That's just about the whole song I hope you like it.
CopyWrite2002 Caleb And Nathan
Comments