Untitled - 131 Chords & Tabs

 

131 Chords & Tabs

Untitled Chords & Tabs

Version: 1 Type: Bass Tab 0 ratings
1 star 2 stars 3 stars 4 stars 5 stars
comments

131 Bass Tab

Band:Untitled
Song:131
SUbmitted by:Nathan G.(Bass)

1st Riff
------------------------------------------------------------
-----------3-5-5-3------------------------------------------
-----3-4-5--------5-4-3-------------------------------------
-3-5--------------------5-3---------------------------------
[ Tab from: http://www.guitartabs.cc/tabs/u/untitled/131_btab.html ]
2nd Riff
------------------------------------------------------------
---------------------3-3-5----------------------------------
---------3-3-4-4-5-5-------5-3------------------------------
-3-3-5-5----------------------------------------------------

That's pretty much it.
IT may take a while, but it's cool when you get the hang of it
it's sweet.
use a DOD bass overdrive (my favorite)
Copyright2002 
Caleb's not straight
this is for all yuou
Comments