Unsung Zeros - Kristina Chords & Tabs

 

Kristina Chords & Tabs

Unsung Zeros Chords & Tabs

Version: 1 Type: Bass Tab 0 ratings
1 star 2 stars 3 stars 4 stars 5 stars
comments

Kristina Bass Tab

intro
g-------------------------
d-------------------------
a-0--8-10--7-8--5-7--3-(play this part 3 times accelerating the rithm each time)
e-------------------------
  
then, after playing the part 3 times, just play this:
g-------------------------------------
d------------------------9------------
a-0--8-10--7-8--5----/11---8-7h8-7----
e-------------------------------------

g----------------------------------------------
d------------------4-7-4----------------9------
a---------4-7-4--5--------7-8-7-5---0/7---7----
e-17/5--5-----------------------------------8--

g--------------------------]--------------
d------------4-7-4---------]----7---------
a---4-7-4--5-------7-8-7-5-]--5-----7-----
e-5------------------------]------5-------

then you keep repeating this part over and over:
(main part)
g---------------------------
d------------4-7-4----------
a---4-7-4--5-------7-8-7-5--
e-5-------------------------
[ Tab from: http://www.guitartabs.cc/tabs/u/unsung_zeros/kristina_btab.html ]
but you switch beetween this variations at the end
of the main part in this order:
g----------                           g------------
d----7----- repeat main part and then d------9----- 
a--5-----7-                           a--0/7---7---                  
e------5---                           e----------8-

repeat main part again and then:
g----------
d----------
a--7-5-4-2-
e----------

bridge:
g-----------------------------------
d-----------------------------------and you repeat it pver and over again
a---------------------4-444-44-44-4-
e--5-555-55--0-000-00---------------

bass solo:
g-------------------------------------
d-----------------7----------------8--and you repeat over and over again
a--0-000-000-0000---0-000-000-0000----
e-------------------------------------

The song structure is really easy to find out, you'll have no problem.

I got it by ear, but I'm sure it's about 99.9% accurate.
 any comments or sugestions, feel free to mail me at: sk8boarder54@hotmail.com
Comments