Unsung Zeros - Chasing Amy Chords & Tabs

 

Chasing Amy Chords & Tabs

Unsung Zeros Chords & Tabs

Version: 1 Type: Bass Tab 0 ratings
1 star 2 stars 3 stars 4 stars 5 stars
comments

Chasing Amy Bass Tab

intro
g----------
d----------
a--5--//17-
e----------
verse
g---------------------------------------------
d---------------------------------------------
a--55-5--00-0---22-2-------------------------- repeat 4 times
e---------------------2-22---3-333-3---55-555-
chorus
g------------------------------------
d------------------------------------
a--55-555-0-000-0---2-222-2----------repeat 4 times
e---------------------------3-333-3--
bridge
g------------
d------------
a------------repeat 3 times
e2222-2-3333-

play verse
play chorus
[ Tab from: http://www.guitartabs.cc/tabs/u/unsung_zeros/chasing_amy_btab.html ]
g----------------------------------------------
d----------------------------------------------
a---5-5-5-5-5-5-5//-17-17-17-17-17-17-17--//5--
e ---------------------------------------------
solo
g----------------------------------------------------------------------
d-------4-------5h7h5-------------4--2--0h2h0-----------0------2h4h2---
a---5-5---5--55--------------4-----------------4---2-2----2-22---------
e-----------------------5-5----5---------------------------------------

g-----------------------------------------------------------------------
d-----------------------2-0------------------4-2-0---------4-------4----
a------------------2---------4--2---0-0--4-0-------4---5-5---5--55---5--
e2-22-0-2-02--33-3---3--------------------------------------------------

g----------------
d----4-555--777--
a--5-------------repeat the whole solo 3 times
e----------------

then play the verse and chorus again, just listen to the song!
Comments