Unseen - So This Is Freedom Chords & Tabs

 

So This Is Freedom Chords & Tabs

Unseen Chords & Tabs

Version: 1 Type: Tab 0 ratings
1 star 2 stars 3 stars 4 stars 5 stars
comments

So This Is Freedom Tab

Unseen
So This Is Freedom?

Intro
|-----------------------------------------------------------------|
|-----------------------------------------------10-10-10-10-10----|
|---x-9-x-9-x-9-x-9-x-9-x-----9-9-9-9-9-9-9---9-9-9-9-9-9-9-9-----|
|-----------------------------------------------------------------|
|-----------------------------------------------------------------|
|-----------------------------------------------------------------|

Verse
|---------------------------------------|
|---------------------------------------|
|--------------------5--------4---------|
|---4-------2--------5--------4---------|
|---4-------2--------3--------2---------|
|---2-------0---------------------------|
[ Tab from: http://www.guitartabs.cc/tabs/u/unseen/so_this_is_freedom_tab.html ]
Chorus
|------------------------------------------------|
|------------------------------------------------|
|---------------------9---9--7--9----9-----------|
|---2--------7--------9---9--7--9----9-----------|
|---2--------7--------7---7--5--7----7-----------|
|---0--------5-----------------------------------|

Bridge (x=PM)
|----------------------------------------------------------|
|----------------------------------------------------------|
|---9-------------x-x-x-x----------------------------------|
|---9-----------2-x-x-x-x-(for a while)-------2~-----------|
|---7-----------2-x-x-x-x---------------------2~(x4)-------|
|---------------0-x-x-x-x---------------------0~-----------|
Chorus again

The Unseen are fucking awesome, also I saw them at Ft. Lauderdale/Fl touring with the suicide machines, and they we so much better than the sucide machines, they fucking suck... well anyways, this song is pretty fucking easy, I was just too lazy to tab it, and if you don't like it... FUCK IT

Giovanni Caligaris
Comments