Unseen - Scream Out Chords & Tabs

 

Scream Out Chords & Tabs

Unseen Chords & Tabs

Version: 2 Type: Tab 0 ratings
1 star 2 stars 3 stars 4 stars 5 stars
comments

Scream Out Tab

   
-------------------------------------------------------------------------------
			     Scream Out - The Unseen
-------------------------------------------------------------------------------


Tabbed by: Brian B.
Email: I1I NOFX I1I   <-- AIM

Tuning: E A D G B E


GUITAR 1:
Intro riff -- these are played through out the whole song.

e|----------------------------------------------|
B|----------------------------------------------|
G|----7xx7xx7x---5xx5xx5x---3xx3xx3x---5xx5xx5x-| 
D|----7xx7xx7x---5xx5xx5x---3xx3xx3x---5xx5xx5x-| repeat ~5 times then...  
A|----5xx5xx5x---3xx3xx3x---1xx1xx1x---3xx3xx3x-| 
E|----------------------------------------------|

e|--------------------------------------|
B|--------------------------------------| 
G|----777777---555555---333333---555555-| Play until the end of guitar 2 
D|----777777---555555---333333---555555-| solo/intro.  alternate between 
A|----555555---333333---111111---333333-| these first 2 riffs.
E|--------------------------------------|  


Chorus: 

e|----------------------------------|
B|----------------------------------|
G|----77777-------------------55555-|
D|----77777---88888---33333---55555-|
A|----55555---88888---33333---33333-|
E|------------66666---11111---------|



Guitar 2:
comes in after "1 2 3 go!"   and again after first chorus.
play fast, and listen closely for timing.
[ Tab from: http://www.guitartabs.cc/tabs/u/unseen/scream_out_tab_ver_2.html ]
e|-------------------------------------------------------------------|
B|-------------------------------------------------------------------|
G|-------10p9-10p9-10-12-12-10-9-10-12-----10-9-10------10-9-7-------|
D|----10-------------------------------8-8----------9-9--------10/12-| x2
A|-------------------------------------------------------------------|
E|-------------------------------------------------------------------| 

when thats played the second time around, dont play the "10" note on the D 
string, just start over from pulloffs from the "12" on the D string at the end.

then, after the second time that riff is played in the song, play this after:

e|-------------------------------------------------------------------|
B|-------------------------------------------------------------------|
G|----10-9-----------12-10-9-10-9------------------------------------|
D|---------10-12------------------10-12------------------------------|
A|-------------------------------------------------------------------|
E|-------------------------------------------------------------------| 

after 2nd chorus:

e|----------------------------------------------------|
B|----------------------------------------------------|
G|---10-9-10-------10-9-10------10-9-10-12-10-9-------|
D|-----------12------------10-------------------10-12-|
A|----------------------------------------------------|
E|----------------------------------------------------| 
         
right after:

e|------------------------|
B|---15-15----------------|
G|---------15-15-14-14-12-| 
D|------------------------| x 15
A|------------------------|
E|------------------------|                                          

Outtro:

i cant figure out this outtro... any suggestions just IM me on I1I NOFX I1I.







| /  slide up
| \  slide down
| h  hammer-on
| p  pull-off
| ~  vibrato
| +  harmonic
| x  Mute note
=============================================================================
Comments