Unseen - No Evacuation Chords & Tabs

 

No Evacuation Chords & Tabs

Unseen Chords & Tabs

Version: 1 Type: Tab 0 ratings
1 star 2 stars 3 stars 4 stars 5 stars
comments

No Evacuation Tab

   
Artist:  The Unseen
Song:  No Evacuation
Album:  The Anger and the Truth
Track:  12
Tabbed by:  Rick (RCGoalie1@aol.com)
AIM:  unhlax23

Chords:

B5   (x244xx)
D5   (x577xx)
G5   (355xxx)
A5   (577xxx)
E5   (x799xx)
C#5  (x466xx)
F#5  (x9-11-11xx)

Chaos Chaos Hear The Sound!
Chaos Chaos Hear The Sound!
Chaos Chaos Hear The Sound!
Chaos Chaos Hear The Sound!

Verse:

E|-------------------------------------|
B|-------------------------------------|
G|--4-4---4-7-7---7--------------------|
D|--4-4---4-7-7---7-5-5---5-7-7--7-----|
A|--2-2---2-5-5---5-5-5---5-7-7--7-----|
E|------------------3-3---3-5-5--5-----|

Fill:
[ Tab from: http://www.guitartabs.cc/tabs/u/unseen/no_evacuation_tab.html ]
E|--------------------------------------------------------------------|
B|--------------------------------------------------------------------|
G|--4-4-4--7---7-7-7---9-9-9-7-6--4-4-4--7--7-7-7--9-9-9-11--6-7-6----|
D|--4-4-4--7---7-7-7---9-9-9-7-6--4-4-4--7--7-7-7--9-9-9-11--6-7-6----|
A|--2-2-2--5---5-5-5---7-7-7-5-4--2-2-2--5--5-5-5--7-7-7--9--4-5-4----|
E|--------------------------------------------------------------------|

Chorus:

E|-----------------------------------------------------------|
B|-----------------------------------------------------------|
G|-7-7-7-----------------------------------------------------|
D|-7-7-7-7-7-7--9-9-7-9-9--7-7-7-7-7-7---9-7-5-7-------------|
A|-5-5-5-7-7-7--9-9-7-9-9--5-5-5-7-7-7---9-7-5-7-------------|
E|-------5-5-5--7-7-5-7-7--------5-5-5---7-5-3-5-------------|

For the break, when the bass is playing, the fifth time he sings the line you
play a B5 and let it ring.

That's it.  Just listen to the song to figure out what goes where.
Rate this for me please.
Comments