Unsane - Scrape Chords & Tabs

 

Scrape Chords & Tabs

Unsane Chords & Tabs

Version: 1 Type: Tab 0 ratings
1 star 2 stars 3 stars 4 stars 5 stars
comments

Scrape Tab

   
<> - harmonics

verse/intro

E||--------------------------------------------|
B||--------------------------------------------|
G||------4-4-4-3-3-3-3-------------------------|
D||2-2-2-4-4-4-3-3-3-3-<3><3><4><4><4><4><4><4>|
A||2-2-2-2-2-2-1-1-1-1-<3><3><4><4><4><4><4><4>|
E||0-0-0---------------<3><3><4><4><4><4><4><4>|

E||-------------------------------|
B||-------------------------------|
G||------4-4-4-3-3-3-3------------|
D||2-2-2-4-4-4-3-3-3-3---5---5---5|
A||2-2-2-2-2-2-1-1-1-1-0-5-0-5-0-5|
E||0-0-0---------------0-3-0-3-0-3|

lead part of intro
[ Tab from: http://www.guitartabs.cc/tabs/u/unsane/scrape_tab.html ]
E||--------------------------------------------|
B||--------------------------------------------|
G||--------------------------------------------|
D||0-2-0-2-0-2-0-2-0-2-0-2-0-2-3-3-3-3-3-3-3-3-|
A||--------------------------------------------|
E||--------------------------------------------|

chorus

E||------------|
B||------------|
G||8-7-6-------|
D||8-7-6-7-7-7-|
A||6-5-4-7-7-7-|
E||------5-5-5-|

break intro

E||0-2-0-2-0-2-0-2-0-2-0-2-0-2-3-3-3-3-3-3-3-3|

Break

E||-----------------------------|
B||-----------------------------|
G||-----------------------------|
D||--4---4---4---4---4---4-5-5-5|
A||0-4-0-4-0-4-0-4-0-4-0-4-5-5-5|
E||0-2-0-2-0-2-0-2-0-2-0-2-3-3-3|

end

repeated 21 times
E||---
B||---
G||---
D||-5-
A||-5-
E||-3-

then

E||---
B||---
G||---
D||-2-
A||-2-
E||-0-
Comments