Unpaid Debt - Verity Chords & Tabs

 

Verity Chords & Tabs

Unpaid Debt Chords & Tabs

Version: 1 Type: Tab 0 ratings
1 star 2 stars 3 stars 4 stars 5 stars
comments

Verity Tab

   
*b= bend
*h= hammer on
*p= pull off
*/= slide
INTRO: (slight palm mute throughout)
E-|------------------------------------------|-
B-|-----4--4------6--6------9--9---------9-9-|-
G-|-3-3-3--3--5-5-5--5--8-8-8--8---8-8-8-8-8-|-
D-|-1-1-1--1--3-3-3--3--6-6-6--6---5-6-5-6-6-|-
A-|-1-1-1--1--3-3-3--3--6-6-6--6---5-6-5-6-6-|-(x 2)
E-|------------------------------------------|-

VERSE: (slight palm mute throughout)
E-|------------------------------------------|-
B-|-----4--4------6--6------9--9---------9-9-|-
G-|-3-3-3--3--5-5-5--5--8-8-8--8---8-8-8-8-8-|-
D-|-1-1-1--1--3-3-3--3--6-6-6--6---5-6-5-6-6-|-
A-|-1-1-1--1--3-3-3--3--6-6-6--6---5-6-5-6-6-|-(x 2)
E-|------------------------------------------|-

E-|--------------------------------|------------------------|-
B-|--------------------------------|------------------------|-
G-|-10-10--------------------------|-10-10------------------|-
D-|-10-10--(8)-(8)--(6)-(6)--10-10-|-10-10--8-8--8-8--10-10-|-
A-|-8--8---(8)-(8)--(6)-(6)--10-10-|-8--8---8-8--8-8--10-10-|-
E-|--------(6)-(6)--(4)-(4)--8--8--|--------6-6--4-4--8--8--|-
                            --------(Palm Mute)------
E-|------------------------|-------------------------|-
B-|------------------------|-------------------------|-
G-|-10-10------------------|-10-10-10-10-10-10-10-10-|-
D-|-10-10--8-8--6-6--10-10-|-10-10-10-10-10-10-10-10-|-
A-|-8--8---8-8--6-6--10-10-|-8--8--8--8--8--8--8--8--|-
E-|--------6-6--4-4--8--8--|-------------------------|-

CHORUS:
E-|------------------------------------------|-
B-|------------------------------------------|-
G-|-8-8-8-3----------------------------------|-
D-|-8-8-8-3-3-3-3--6-6--6-6-6--6-6-6---------|-
A-|-6-6-6-1-3-3-3--6-6--6-6-6--6-6-6-----6h8-|-
E-|---------1-1-1--4-4--4-4-4--4-4-4-4h6-----|-

E-|------------------------------------|-
B-|------------------------------------|-
G-|-8-8-8-3----------------------------|-
D-|-8-8-8-3-3-3-3--6-6--6-6--6-6--6-6--|-
A-|-6-6-6-1-3-3-3--6-6--6-6--6-6--6-6--|-
E-|---------1-1-1--4-4--4-4--4-4--4-4--|-

E-|-------------------------------------------|-
B-|-------------------------------------------|-
G-|-8-8-8-8-8---------------------------------|-
D-|-8-8-8-8-8-8-8-8-8-8--3-3-3-3-3--6-6-6-6-6-|-
A-|-6-6-6-6-6-8-8-8-8-8--3-3-3-3-3--6-6-6-6-6-|-
E-|-----------6-6-6-6-6--1-1-1-1-1--4-4-4-4-4-|-
[ Tab from: http://www.guitartabs.cc/tabs/u/unpaid_debt/verity_tab.html ]
E-|-------------------------------------------|-
B-|-------------------------------------------|-
G-|-8-8-8-8-8---------------------------------|-
D-|-8-8-8-8-8-8-8-8-8-8--3-3-3-3-3--6-6-6-6-6-|-
A-|-6-6-6-6-6-8-8-8-8-8--3-3-3-3-3--6-6-6-6-6-|-
E-|-----------6-6-6-6-6--1-1-1-1-1--4-4-4-4-4-|-


BRIDGE:
E-|-------------------------------|-
B-|-------------------------------|-
G-|-5-5---------------------------|-
D-|-5-5-----3-3---6-6-6---5\3-3/5-|-
A-|-3-3-----3-3---6-6-6---3\1-1/3-|-
E-|---------1-1---4-4-4-----------|-

E-|-------------------------------|-
B-|-------------------------------|-
G-|-5-5---------------------------|-
D-|-5-5-----3-3---6-6-6---5\3-3/5-|-
A-|-3-3-----3-3---6-6-6---3\1-1/3-|-
E-|---------1-1---4-4-4-----------|-

E-|-----------------------------------------|-------------------|-
B-|-----------------------------------------|-------------------|-
G-|-----------------------------------------|-------------------|-
D-|-3---8---6---10-10----3---8---6---10-10--|-------------------|-
A-|-----------------------------------------|-3-3-3-3-3-3-3-3-3-|-
E-|-1---6---4---8--8-----1---6---4---8--8---|-1-1-1-1-1-1-1-1-1-|-
SOLO:
E-|--------------------------|----------------------------------|-
B-|--------------------------|--------13------------------------|-
G-|----13----13-----13-15b--|-----13-----------x3--------------|-
D-|-15----15-----15----------|-15b------------------------------|-
A-|--------------------------|----------------------------------|-
E-|--------------------------|----------------------------------|-

E-|-----------------------------8-------------------------------|-
B-|--------------8----------------------------------------------|-
G-|----8----8h10------8----8h10---------------------------------|-
D-|-10---10--------10---10--------------------------------------|-
A-|-------------------------------------------------------------|-
E-|-------------------------------------------------------------|-
Scar bit at end: (figure out how long to strum scar for)
E-|-------------------------------------------------------------|-
B-|-------------------------------------------------------------|-
G-|-4-----------------------------------------------------------|-
D-|-4---3---6---8-----------------------------------------------|-
A-|-6---3---6---8-----------------------------------------------|-
E-|-----1---4---6-----------------------------------------------|-
Outro bit (after chorus is played)
E-|-8---6-------6-----------------------------------------------|-
B-|---------8-------8---7h8-------------------------------------|-
G-|-------------------------------------------------------------|-
D-|-------------------------------------------------------------|-
A-|-------------------------------------------------------------|-
E-|-------------------------------------------------------------|-
Tabbed by Drew Stapleton
Comments