Unlord - Uprising Hordes Chords & Tabs

 

Uprising Hordes Chords & Tabs

Unlord Chords & Tabs

Version: 1 Type: Tab 0 ratings
1 star 2 stars 3 stars 4 stars 5 stars
comments

Uprising Hordes Tab

   
UNLORD

Uprising Hordes

From: Schwarzwald

Displeased Records 1997



Tune down 1 step.



Riff A: 2X

|--9---9---9---9--|

|--7---7---7---7--|

|--0---0---0---0--|

|------------------|



Riff B (Verse 1): 3X

|------------------------|

|--9-8-9---11-12-11-12--|

|--7-6-7----9-10--9-10--|

|------------------------|



Riff B2: 1X

|--------------------------|

|--9-8-9--4--4--4--7-6-5--|

|--7-6-7--2--2--2--5-4-3--|

|--------------------------|



Riff C: 4X

|----/s\--/s\---/s\--------|

|--4454-4454-4454-7-6-5--|

|--2232-2232-2232-5-4-3--|
[ Tab from: http://www.guitartabs.cc/tabs/u/unlord/uprising_hordes_tab.html ]
|--------------------------|



Riff A: 2X

Riff B: 3X

Riff B2: 1X

Riff C: 8X



Riff C2: 4X

|--------------------------|

|----/s\--/s\---/s\--------|

|--4454-4454-4454-7-6-5--|

|--2232-2232-2232-5-4-3--|



Riff C: 2X

Riff C2 4X



Riff D (Crescendo): X?

|------------|

|--4-5-4-5--|

|--2-3-2-3--|

|------------|



Riff E: 1X

|-------------------|

|--5---7---9---11--|

|--3---5---7---9---|

|------------------|



Riff B: 3X

Riff C2: 1X

Riff C: 5X

END



Tabbed by: macabre@interlog.com
Comments