Unloco - Whimper Chords & Tabs

 

Whimper Chords & Tabs

Unloco Chords & Tabs

Version: 2 Type: Tab 0 ratings
1 star 2 stars 3 stars 4 stars 5 stars
comments

Whimper Tab

   
Song: "Whimper"
Artist: Unloco
Album: Healing
Transcribed By: Bryan Bramlett (bryanmb87@aol.com)

Tuning: Drop D, 1 1/2 Steps Down (B,F#,B,E,G#,C#)

INTRO: (w/ effect) (* - 1st time only)
|---------------------|
|---------------------|
|-*7*-7-77-77-7-77-77-|
|-*X*-X-XX-XX-X-XX-XX-|
|-*5*-5-55-55-5-55-55-|
|---------------------|

BRIDGE:
|-----------------------|
|-----------------------|
|-----------------------|
|-------0-3-0-5-0-6-0-2-|
|-------0-3-0-5-0-6-0-2-|
|-7h8-0-0-3-0-5-0-6-0-2-|

BRIDGE 2:
|------------------------|
|------------------------|
|------------------------|
|-0--0--0--0--0--0--0--0-|
|-0--0--0--0--0--0--0--0-|
|-0--0--0--0--0--0--0--0-|

VERSE: (w/ effect)
|----------------------------------|
|----------------------------------|
|-7-7-77-77-7-77-78-8-88-88-8-88-8-|
|-X-X-XX-XX-X-XX-XX-X-XX-XX-X-XX-X-|
|-5-5-55-55-5-55-56-6-66-66-6-66-6-|
|----------------------------------|
[ Tab from: http://www.guitartabs.cc/tabs/u/unloco/whimper_tab_ver_2.html ]
CHORUS:
|-----------------------------------|
|-----------------------------------|
|-----------------------------------|
|-------------------------------8-3-|
|-0h1p0-XX-X0h1p0-XX-X0h1p0-XX-X8-3-|
|-0h1p0-XX-X0h1p0-XX-X0h1p0-XX-X8-3-|

INTERLUDE
|----------------------------|
|----------------------------|
|----------------------------|
|----------------------------|
|-5-6-7--5-6-7--5-6-7--5-6-7-|
|----------------------------|
PM. .    . .    . .    . .

INTERLUDE 2:
|----------------------------------------|
|----------------------------------------|
|----------------------------------------|
|----------------------------------------|
|-12-13-14--12-13-14--12-13-14--12-13-14-|
|-12-13-14--12-13-14--12-13-14--12-13-14-|

INTERLUDE 3:
|----------------------------|
|----------------------------|
|----------------------------|
|----------------------------|
|----------------------------|
|-0-1-2--0-1-2--0-1-2--0-1-2-|

INTERLUDE 4:
|----------------------------|
|----------------------------|
|----------------------------|
|----------------------------|
|-0-1-2--0-1-2--0-1-2--0-1-2-|
|-0-1-2--0-1-2--0-1-2--0-1-2-|
Comments