Unloco - Texas Chords & Tabs

 

Texas Chords & Tabs

Unloco Chords & Tabs

Version: 4 Type: Tab 0 ratings
1 star 2 stars 3 stars 4 stars 5 stars
comments

Texas Tab

Texas Tab, by Unloco
Tabbed by: Gieda2004

Standard Tuning

This is an awesome song that is a little difficult to tab but I did my best.  I realize 
this isn't 100% correct but it's good enough to sound like the actual song.  I'd say 
is about 85-90% right.

Intro

------------------------------------------------------------|
------------------------------------------------------------|
-6------6------6------6--------2--2--9--9--------4-4--------|
-6------6------6------6--------2--2--9--9--------4-4--------| Repeat
-4------4------6------4--------0--0--7--7--2-2--2-2---------|
-4------4------4------4--------0--0--0--0--0-0--2-2---------|

--------------------------------------------------------|
--------------------------------------------------------|
-6-----6-----6-----6------2--2--9--9--------4-4---------|
-6-----6-----6-----6------2--2--9--9--------4-4---------|
-4-----4-----6-----4------0--0--7--7--2-2-2-2-----------|
-4-----4-----4-----4------0--0--0--0--0-0-2-2-----------|
Sometimes I lie awake in bed

----------------------------------------------------------|
----------------------------------------------------------|
-6------6------6------6--------2--2--9--9-------4-4-------|
-6------6------6------6--------2--2--9--9-------4-4-------|
-4------4------6------4--------0--0--7--7--2-2-2-2--------|
-4------4------4------4--------0--0--0--0--0-0-2-2--------|
Thinkin' about the things you said

----------------------------------------------------|
----------------------------------------------------|
-6------6------6------6------2---2---9--9-------4-4-|
-6------6------6------6------2---2---9--9-------4-4-|
-4------4------6------4------0---0---7--7--2-2-2-2--|
-4------4------4------4------0---0---0--0--0-0-2-2--|
So lost the words, so lost to tell you how I feel

----------------------------------------------------|
----------------------------------------------------|
-6------6------6------6------2---2---9--9-------4-4-|
-6------6------6------6------2---2---9--9-------4-4-|
-4------4------6------4------0---0---7--7--2-2-2-2--|
-4------4------4------4------0---0---0--0--0-0-2-2--|
So terrified of changing what I thought was real

Chorus

----------------------------------------|
----------------------------------------|
-9----9----4----4----2--x--6-4--2-2-4-4-|
-9----9----4----4----2--x--6-4--2-2-4-4-|
-7----7----2----2----0--x--4-2--0-0-2-2-|
-0----0----2----2----0--x--4-2--0-0-2-2-|
It's too bad        	you're gone

----------------------------------------|
----------------------------------------|
-9----9----4----4----2--x--6-4--2-2-4-4-|
-9----9----4----4----2--x--6-4--2-2-4-4-|
-7----7----2----2----0--x--4-2--0-0-2-2-|
-0----0----2----2----0--x--4-2--0-0-2-2-|
It's too bad		you're not alone

----------------------------------------|
----------------------------------------|
-9----9----4----4----2--x--6-4--2-2-4-4-|
-9----9----4----4----2--x--6-4--2-2-4-4-|
-7----7----2----2----0--x--4-2--0-0-2-2-|
-0----0----2----2----0--x--4-2--0-0-2-2-|
And I know that	you couldn't see

----------------------------------------|
----------------------------------------|
-9----9----4----4----2--x--6-4--2-2-4-4-|
-9----9----4----4----2--x--6-4--2-2-4-4-|
-7----7----2----2----0--x--4-2--0-0-2-2-|
-0----0----2----2----0--x--4-2--0-0-2-2-|
That it's just too bad that you're gone, and not here with me

---------------------------------------------------|
---------------------------------------------------|
-2--2-----2--2---------9--9-----------4--4---------|
-2--2-----2--2---------9--9-----------4--4---------|
-0--0--2--0--0--2--2-2-7--7--2-2-2--2--------------|
-0--0---0-0--0---0-0-0-0--0--0-0-2--2--------------|
[ Tab from: http://www.guitartabs.cc/tabs/u/unloco/texas_tab_ver_4.html ]
----------------------------------------------------|
----------------------------------------------------|
-6------6------6------6------2---2---9--9-------4-4-|
-6------6------6------6------2---2---9--9-------4-4-|
-4------4------6------4------0---0---7--7--2-2-2-2--|
-4------4------4------4------0---0---0--0--0-0-2-2--|
Standing here, trying to make some sense of this

----------------------------------------------------|
----------------------------------------------------|
-6------6------6------6------2---2---9--9-------4-4-|
-6------6------6------6------2---2---9--9-------4-4-|
-4------4------6------4------0---0---7--7--2-2-2-2--|
-4------4------4------4------0---0---0--0--0-0-2-2--|
There's nothing between us, still I can feel your awkwardness

----------------------------------------------------|
----------------------------------------------------|
-6------6------6------6------2---2---9--9-------4-4-|
-6------6------6------6------2---2---9--9-------4-4-|
-4------4------6------4------0---0---7--7--2-2-2-2--|
-4------4------4------4------0---0---0--0--0-0-2-2--|
So lost the words, so you just tell me I'm your friend

--------------------------------------------------|
--------------------------------------------------|
-6------6------6------6------2---2---2--------4-4-|
-6------6------6------6------2---2---2--------4-4-|
-4------4------6------4------0---0---0--2--2-2-2--|
-4------4------4------4------0---0---0--0--0-2-2--|
There must be one reason, only one reason in the end

Chorus #2

-------------------------------------------|
-------------------------------------------|
-9---9-(11)--4----4----2--x--6-4--2-2-4-4--|
-9---9-(11)--4----4----2--x--6-4--2-2-4-4--|
-7---7---9---2----2----0--x--4-2--0-0--2-2-|
-0---0---0---2----2----0--x--4-2--0-0--2-2-|
It's too bad        	you're gone

-------------------------------------------|
-------------------------------------------|
-9---9-(11)--4----4----2--x--6-4--2-2-4-4--|
-9---9-(11)--4----4----2--x--6-4--2-2-4-4--|
-7---7---9---2----2----0--x--4-2--0-0--2-2-|
-0---0---0---2----2----0--x--4-2--0-0--2-2-|
It's too bad		you're not alone

-------------------------------------------|
-------------------------------------------|
-------------------------------------------|
-9---9-(11)--4----4----2--x--6-4--2-2-4-4--|
-9---9-(11)--4----4----2--x--6-4--2-2-4-4--|
-7---7---9---2----2----0--x--4-2--0-0--2-2-|
-0---0---0---2----2----0--x--4-2--0-0--2-2-|
And I know that	you couldn't see

-------------------------------------------|
-------------------------------------------|
-9---9-(11)--4----4----2--x--6-4--2-2-4-4--|
-9---9-(11)--4----4----2--x--6-4--2-2-4-4--|
-7---7---9---2----2----0--x--4-2--0-0--2-2-|
-0---0---0---2----2----0--x--4-2--0-0--2-2-|
That it's just too bad that you're gone, and not here with me

------------------------------------------------|
------------------------------------------------|
-2-2--2-----2--2---------4--4------------9-9--4-|
-2-2--2-----2--2-2-------4--4-----------9-9--4--|
-0-0--0--2--0--0--2--2-2-2--2-2--2--7-7--2------|
-0-0--0---0-0--0---0-0-0-2--2--0--0--0-0--2-----|
So why are you pulling away?

---------------------------------------------|
---------------------------------------------|
-----6------6-6-------7--7--9--7--------6----|
-----6------6-6--6----7--7--9--7----7----6---|
-2---4--2-2-4-6---4---5--5--7--5-----5----5--|
-0---4--0-0-4-4----4--5--5--0--5--0--------5-|
And it must be from things that I say

--------------------------------------|
--------------------------------------|
-----6------6-9-9------4-4-----2-2--2-|
-----6------6-9-9------4-4-----2-2--2-|
-5---5--5-5-5-7-7---2--2-2--0--0-0--0-|
-5---5--5-5-5-0-0---0--2-2--0--0-0--0-|
And I'm thinking you're thinking of him

---------------------------------------------|
---------------------------------------------|
-6------6----6-6------6--------2--2--4--4--9-|
-6------6----6-6------6--------2--2--4--4--9-|
-4------4----4-4------4--------0--0--2--2--7-|
-4------4----4-4------4--------0--0--2--2--0-|
So why do    I 	even 	care  at  all?
Comments