Unloco - Reckoning Chords & Tabs

 

Reckoning Chords & Tabs

Unloco Chords & Tabs

Version: 2 Type: Tab 0 ratings
1 star 2 stars 3 stars 4 stars 5 stars
comments

Reckoning Tab

   
Song: "Reckoning"
Artist: Unloco
Album: Healing
Transcribed By: Bryan Bramlett (bryanmb87@aol.com)

Tuning: Drop D, 1 1/2 Steps Down (B,F#,B,E,G#,C#)

CHORUS:
|---------------------------------|
|---------------------------------|
|---------------------------------|
|-7-0-0-6-0-0-5-0-0-3-0-0-2-0-1-0-|
|-7-0-0-6-0-0-5-0-0-3-0-0-2-0-1-0-|
|-7-0-0-6-0-0-5-0-0-3-0-0-2-0-1-0-|

VERSE: (palm mute)
|-------------|
|-------------|
|-------------|
|-00-00-00-00-|
|-00-00-00-00-|
|-00-00-00-00-|

VERSE B:
|-------------|
|-------------|
|-------------|
|-----7-----7-|
|-0-0-7-00--7-|
|-0-0-7-00--7-|
PM. .   ..
[ Tab from: http://www.guitartabs.cc/tabs/u/unloco/reckoning_tab_ver_2.html ]
FILL: (palm mute)
|-------------------|
|-------------------|
|-------------------|
|-00-0-0-00-0-0-000-|
|-00-0-0-00-0-0-000-|
|-00-0-0-00-0-0-000-|

BRIDGE:
|--------------------------|
|--------------------------|
|--------------------------|
|-0--0-5--5-0-3--0-3--3-3\-|
|-0--0-5--5-0-3--0-3--3-3\-|
|-0--0-5--5-0-3--0-3--3-3\-|

INTERLUDE:
|-------------------------------|
|-------------------------------|
|-------------------------------|
|-3-----2-----1-----------------|
|-------------------4-----3---2-|
|---0-0---0-0---0-0---0-0---0---|

INTERLUDE 2:
|--------------------------------|
|--------------------------------|
|-10-----9-----8-----6-----5---4-|
|----0-0---0-0---0-0---0-0---0---|
|--------------------------------|
|--------------------------------|
Comments