Unloco - Nothing Chords & Tabs

 

Nothing Chords & Tabs

Unloco Chords & Tabs

Version: 3 Type: Tab 0 ratings
1 star 2 stars 3 stars 4 stars 5 stars
comments

Nothing Tab

Band: Unloco
Song: Nothing
Album: Little Nicky soundtrack
Transcriber: Robert Johnstone
Standard tuning


I've got.......Nothing left for you t take away
E----------------------------------------------|
B----------------------------------------------|
G----------------------------------------------|
D----------------------------------------------|
A--2-2-2-2-2-2-2-2-2-2-2-2-2--2----------------|
E--2-2-2-2-2-2-2-2-2-2-2-2-2--2----------------|
                                       *  *  *
Then bass and effects come in...


I've got nothing! I've got nothing....
E--------------------------------------------------------------------------|
B--------------------------------------------------------------------------|
G--------------------------------------------------------------------------|
D--------------------------------------------------------------------------|
A--2---5--4--3------2----5--4--3-----6-6-6-6-6-6s8-8-8-8-8-8---------------|
E--2---5--4--3------2----5--4--3-----6-6-6-6-6-6s8-8-8-8-8-8---------------|

So what, it's not the same every word out your mouth...
E-------------------------------------------------------|
B-------------------------------------------------------|
G-------------------------------------------------------|
D-------------------------------------------------------|
A--2-2-2-2-2-2-2-2-2-2-2-2-2--2-------------------------|
E--2-2-2-2-2-2-2-2-2-2-2-2-2--2-------------------------|
                                       *  *  *
And in my life you confide...-Bass guitar plays during this

[ Tab from: http://www.guitartabs.cc/tabs/u/unloco/nothing_tab_ver_3.html ]
I've got nothing! I've got nothing....
E--------------------------------------------------------------------------|
B--------------------------------------------------------------------------|
G--------------------------------------------------------------------------|
D--------------------------------------------------------------------------|
A--2---5--4--3------2----5--4--3-----6-6-6-6-6-6s8-8-8-8-8-8---------------|
E--2---5--4--3------2----5--4--3-----6-6-6-6-6-6s8-8-8-8-8-8---------------|

So what, you hate me.....
E-------------------------------------------------------|
B-------------------------------------------------------|
G-------------------------------------------------------|
D-------------------------------------------------------|
A--2-2-2-2-2-2-2-2-2-2-2-2-2--2-------------------------|
E--2-2-2-2-2-2-2-2-2-2-2-2-2--2-------------------------|
                                       *  *  *
I've got nothing! I've got nothing....
E-----------------------------------------------------------------------|
B-----------------------------------------------------------------------|
G-----------------------------------------------------------------------|
D-----------------------------------------------------------------------|
A--2---5--4--3------2----5--4--3-----6-6-6-6-6-6s8-8-8-8-8-8------------|
E--2---5--4--3------2----5--4--3-----6-6-6-6-6-6s8-8-8-8-8-8------------|

I!!!!...
E-----------------------------------------------------------------------|
B-----------------------------------------------------------------------|
G-----------------------------------------------------------------------|
D-----------------------------------------------------------------------|
A--2---5--4--3------2----5--4--3-----6-6-6-6-6-6s8-8-8-8-8-8------------|
E--2---5--4--3------2----5--4--3-----6-6-6-6-6-6s8-8-8-8-8-8------------|

That's it for now, Finished and accurate...
Comments