Unloco - Nothing Chords & Tabs

 

Nothing Chords & Tabs

Unloco Chords & Tabs

Version: 2 Type: Tab 0 ratings
1 star 2 stars 3 stars 4 stars 5 stars
comments

Nothing Tab

   
Song: "Nothing"
Artist: Unloco
Album: Healing
Transcribed By: Bryan Bramlett (bryanmb87@aol.com)

Tuning: Drop D, 1 1/2 Steps Down (B,F#,B,E,G#,C#)

INTRO:
|--------|
|--------|
|--------|
|-00--00-|
|-00--00-|
|-00--00-|

VERSE:
|--------------------------|
|--------------------------|
|--------------------------|
|-00--00--00--00-XX-X-XXXX-|
|-00--00--00--00-XX-X-XXXX-|
|-00--00--00--00-XX-X-XXXX-|

VERSE B:
|------------|
|------------|
|------------|
|------------|
|------------|
|-0000334455-|
[ Tab from: http://www.guitartabs.cc/tabs/u/unloco/nothing_tab_ver_2.html ]
CHORUS:
|-----------------------------------------------|
|-----------------------------------------------|
|---------7----------7----------7---------------|
|-00--6-6-7--00--6-6-7--00--6-6-7--666677777777-|
|-00--6-6-5--00--6-6-5--00--6-6-5--666677777777-|
|-00--6-6----00--6-6----00--6-6----666677777777-|

FILL:
|-------------|
|-------------|
|-------------|
|-0-0-0-1-1-1-|
|-0-0-0-1-1-1-|
|-0-0-0-1-1-1-|

INTERLUDE:
|----------|
|----------|
|-77777777-|
|-XXXXXXXX-|
|-55555555-|
|----------|

OUTRO:
|----------|
|----------|
|----------|
|-00-0-0-0-|
|-00-0-0-0-|
|-00-0-0-0-|
Comments