Unloco - Neurotic Chords & Tabs

 

Neurotic Chords & Tabs

Unloco Chords & Tabs

Version: 1 Type: Tab 0 ratings
1 star 2 stars 3 stars 4 stars 5 stars
comments

Neurotic Tab

   
Band- Unloco
Song- Neurotic

Tuning: Drop B (B F# B E G# C#)

Intro
|----------------------|
|----------------------|
|----------8-8-8-7-7-7-|
|-0-0-0----x-x-x-x-x-x-|
|-0-0-0----6-6-6-5-5-5-|
|-0-0-0----------------|
  PM---|

|---------------------------------------------------------|
|---------------------------------------------------------|
|---7---7-------------------------5---5---8-8-8-8-7-7-7-7-|
|-0-x-0-x-0-8-8-8-8-10-10-10-10-0-x-0-x-0-x-x-x-x-x-x-x-x-|
|-0-5-0-5-0-8-8-8-8-10-10-10-10-0-3-0-3-0-6-6-6-6-5-5-5-5-|
|-0---0---0-8-8-8-8-10-10-10-10-0---0---0-----------------|x4

Pre-Chorus
|--------------------------------------------------|
|--------------------------------------------------|
|--------------------------------------------------|
|-0-0----------------------0-0---------------------|
|-0-0----------------------0-0---------------------|
|-0-0--0-0--0-0--0-0--0-0--0-0--0-0--0-0--0-0--0-0-|
       PM----------------|      PM----------------|
[ Tab from: http://www.guitartabs.cc/tabs/u/unloco/neurotic_tab.html ]
Chorus
|---------------------------------------------------------|
|---------------------------------------------------------|
|---7---7-------------------------5---5---8-8-8-8-7-7-7-7-|
|-0-x-0-x-0-8-8-8-8-10-10-10-10-0-x-0-x-0-x-x-x-x-x-x-x-x-|
|-0-5-0-5-0-8-8-8-8-10-10-10-10-0-3-0-3-0-6-6-6-6-5-5-5-5-|
|-0---0---0-8-8-8-8-10-10-10-10-0---0---0-----------------|x4

Repeat Pre-Chorus and Chorus the same way.

Bridge
|------------------------------------------------------|
|------------------------------------------------------|
|-5--7-------5--7-------5--7---------------------------|
|-x--x--0-0--x--x--0-0--x--x--0-0--8-8-8-8-10-10-10-10-|
|-3--5--0-0--3--5--0-0--3--5--0-0--8-8-8-8-10-10-10-10-|
|-------0-0--------0-0--------0-0--8-8-8-8-10-10-10-10-|x2
        PM         PM         PM

|------------|
|------------|
|------------|
|-0~~~~~~~~~-|
|-0~~~~~~~~~-|
|-0~~~~~~~~~-|
NOTE: A Phaser-type efect comes in half-way through

Interlude
|-----------------------------|
|-----------------------------|
|--------14----14----14----14-|
|-0-0--x-x---x-x---x-x---x-x--|
|-0-0--x-12--x-12--x-12--x-12-|
|-0-0--x-----x-----x-----x----|x2

|-----|
|-----|
|-----|
|-0-0-|
|-0-0-|
|-0-0-|

Repeat Chorus same way.

Outro
|------------------------------------------------------|
|------------------------------------------------------|
|-5--7-------5--7-------5--7---------------------------|
|-x--x--0-0--x--x--0-0--x--x--0-0--8-8-8-8-10-10-10-10-|
|-3--5--0-0--3--5--0-0--3--5--0-0--8-8-8-8-10-10-10-10-|
|-------0-0--------0-0--------0-0--8-8-8-8-10-10-10-10-|x4
        PM         PM         PM

|-------------------|
|-------------------|
|---14----14----14~-|
|-0-x---x-x---x-x---|
|-0-12--x-12--x-12~-|
|-0-----x-----x-----|


Comments