Unloco - Fold Chords & Tabs

 

Fold Chords & Tabs

Unloco Chords & Tabs

Version: 1 Type: Tab 0 ratings
1 star 2 stars 3 stars 4 stars 5 stars
comments

Fold Tab

Band- Unloco
Song- Fold

Tuning: (Cb,Gb,Cb,Fb,Ab,Db)

Intro:
Db|---------------------------------------|
Ab|---------------------------------------|
Fb|---------------2-22--------------------|
Cb|-----3-3-2-22------------3-3-2-22------|
Gb|-0-0----------------0-0-----------3--1-|
Cb|---------------------------------------|
[ Tab from: http://www.guitartabs.cc/tabs/u/unloco/fold_tab.html ]
Pre-Chorus:
Db|---------------------------------------------------------|
Ab|---------------------------------------------------------|
Fb|---------------------------------------------------------|
Cb|-7-7-7-7-7--8-8-8-8-3-3-3--7-7-7-7-7-0-0--8-8-8-10-10-8--|
Gb|-7-7-7-7-7--8-8-8-8-3-3-3--7-7-7-7-7-0-0--8-8-8-10-10-8--|
Cb|-7-7-7-7-7--8-8-8-8-3-3-3--7-7-7-7-7-0-0--8-8-8-10-10-8--|

Chorus:
Db|-------------------------------------------------------|
Ab|-------------------------------------------------------|
Fb|-------------------------------------------------------|
Cb|-3--3-3-3--3-3--0-0-0---7--7-7-7--7-7-7--8-8-8-8-8-8-8-|
Gb|-3--3-3-3--3-3--0-0-0---7--7-7-7--7-7-7--8-8-8-8-8-8-8-|
Cb|-3--3-3-3--3-3--0-0-0---7--7-7-7--7-7-7--8-8-8-8-8-8-8-|

Bridge:
Db|---------------------------|----|
Ab|---------------------------|----|
Fb|---------------------------|----|
Cb|-7-7-7-7-7--8-8-8-8--3-3-3-|-7~-|
Gb|-7-7-7-7-7--8-8-8-8--3-3-3-|-7~-|
Cb|-7-7-7-7-7--8-8-8-8--3-3-3-|-7~-|

End:
D|----|
A|----|
F|----|
C|-3~-|
G|-3~-|
C|-3~-|
Comments