Unloco - Far Side Chords & Tabs

 

Far Side Chords & Tabs

Unloco Chords & Tabs

Version: 1 Type: Bass Tab 0 ratings
1 star 2 stars 3 stars 4 stars 5 stars
comments

Far Side Bass Tab

   
Band- Unloco
Song- Far Side

Tuning B F# B E

INTRO:
|--------------------------|
|--------------------------|
|--------------------------|
|-0-0--0-0--0-0--3-3-3h5-3-|

INTRO 2:
|--------------------------|
|--------------------------|
|--------------------------|
|-0-0--0-0--0-0--3-3-3h5-3-|

VERSE: 
|------------------------|
|------------------------|
|------------------------|
|-0-0--0-0--0-0--3335533-|
[ Tab from: http://www.guitartabs.cc/tabs/u/unloco/far_side_btab.html ]
BRIDGE:
|----------------------------------------------------------------------|
|----------------------------------------------------------------------|
|----------------------------------------------------------------------|
|-3--2--1--0-0--0-0--0-0--3-3-3h5-3--0-0--0-0--0-0--3-3-3h5-3--3--2--1-|

CHORUS:
|-------------------------|    |----------------------|
|-------------------------|play|----------------------|
|--5--5-5-----------------| 3X |----------------------|
|---------6-66-5-55-3-5-3-|then|-2-22-2-22-3-33-5-5-5-|

FILL:
|----|
|----|
|----|
|-0~-|

INTERLUDE: 
|---------------------|
|---------------------|
|---------------------|
|-8-8888-8887-7772-22-|
Comments