Unloco - Face Down Chords & Tabs

 

Face Down Chords & Tabs

Unloco Chords & Tabs

Version: 2 Type: Bass Tab 0 ratings
1 star 2 stars 3 stars 4 stars 5 stars
comments

Face Down Bass Tab

Band- Unloco
Song- Face Down

intro
G--------------------------------------------------|
D------6-6-6-6------6-6-6-6-----2-2-2-2----2-2-2-2-|
A--------------------------------------------------|
D-7-77---------7-77---------3-33--------3-3--------|

verse
G-------------------------------------------------|
D-----6-6-6-6-----6-6-6-6-----2-2-2-2-----2-2-2-2-|
A-------------------------------------------------|
D-7-7---------7-7---------3-3---------3-3---------|
[ Tab from: http://www.guitartabs.cc/tabs/u/unloco/face_down_btab_ver_2.html ]
pre-chorus (have to have this or tab is "too short")
same as verse and intro
G------------------------------------------------------|
D------6-6-6-6------6-6-6-6-------2-2-2-2------2-2-2-2-|
A------------------------------------------------------|
D-7-77---------7-77----------3-33---------3-33---------|

chorus
G----------------------4-4-4-4-4-4------|     i didnt put the exact
D---------------------------------------|     # of 2s so figue that out
A-2-2-2-2-2-2-3-4-----------------------|
D-----------------4--4------------------|
                  M

Interlude
G--8----6------|
D---9--8--6----|
A--------------|
D--------------|
Comments